  0
SECTION
  2
HEADER
  9
$ACADVER
  1
AC1015
  9
$ACADMAINTVER
 70
               6
  9
$DWGCODEPAGE
  3
ANSI_1252
  9
$INSBASE
 10
0.0
 20
0.0
 30
0.0
  9
$EXTMIN
 10
-38.999970000000019
 20
-144.00002000000006
 30
0.0
  9
$EXTMAX
 10
1149.20003
 20
794.44128000000001
 30
0.0
  9
$LIMMIN
 10
0.0
 20
0.0
  9
$LIMMAX
 10
0.0
 20
0.0
  9
$ORTHOMODE
 70
               0
  9
$REGENMODE
 70
               1
  9
$FILLMODE
 70
               1
  9
$QTEXTMODE
 70
               0
  9
$MIRRTEXT
 70
               1
  9
$LTSCALE
 40
19.199999999999999
  9
$ATTMODE
 70
               1
  9
$TEXTSIZE
 40
0.2
  9
$TRACEWID
 40
1.0
  9
$TEXTSTYLE
  7
Standard
  9
$CLAYER
  8
0
  9
$CELTYPE
  6
Continuous
  9
$CECOLOR
 62
             256
  9
$CELTSCALE
 40
1.0
  9
$DISPSILH
 70
               0
  9
$DIMSCALE
 40
1.0
  9
$DIMASZ
 40
0.18
  9
$DIMEXO
 40
0.0625
  9
$DIMDLI
 40
0.38
  9
$DIMRND
 40
0.0
  9
$DIMDLE
 40
0.0
  9
$DIMEXE
 40
0.18
  9
$DIMTP
 40
0.0
  9
$DIMTM
 40
0.0
  9
$DIMTXT
 40
0.18
  9
$DIMCEN
 40
0.09
  9
$DIMTSZ
 40
0.0
  9
$DIMTOL
 70
               0
  9
$DIMLIM
 70
               0
  9
$DIMTIH
 70
               1
  9
$DIMTOH
 70
               1
  9
$DIMSE1
 70
               0
  9
$DIMSE2
 70
               0
  9
$DIMTAD
 70
               0
  9
$DIMZIN
 70
               0
  9
$DIMBLK
  1

  9
$DIMASO
 70
               1
  9
$DIMSHO
 70
               1
  9
$DIMPOST
  1

  9
$DIMAPOST
  1

  9
$DIMALT
 70
               0
  9
$DIMALTD
 70
               2
  9
$DIMALTF
 40
25.399999999999999
  9
$DIMLFAC
 40
1.0
  9
$DIMTOFL
 70
               0
  9
$DIMTVP
 40
0.0
  9
$DIMTIX
 70
               0
  9
$DIMSOXD
 70
               0
  9
$DIMSAH
 70
               0
  9
$DIMBLK1
  1

  9
$DIMBLK2
  1

  9
$DIMSTYLE
  2
Standard
  9
$DIMCLRD
 70
               0
  9
$DIMCLRE
 70
               0
  9
$DIMCLRT
 70
               0
  9
$DIMTFAC
 40
1.0
  9
$DIMGAP
 40
0.09
  9
$DIMJUST
 70
               0
  9
$DIMSD1
 70
               0
  9
$DIMSD2
 70
               0
  9
$DIMTOLJ
 70
               1
  9
$DIMTZIN
 70
               0
  9
$DIMALTZ
 70
               0
  9
$DIMALTTZ
 70
               0
  9
$DIMUPT
 70
               0
  9
$DIMDEC
 70
               4
  9
$DIMTDEC
 70
               4
  9
$DIMALTU
 70
               2
  9
$DIMALTTD
 70
               2
  9
$DIMTXSTY
  7
Standard
  9
$DIMAUNIT
 70
               0
  9
$DIMADEC
 70
               0
  9
$DIMALTRND
 40
0.0
  9
$DIMAZIN
 70
               0
  9
$DIMDSEP
 70
               0
  9
$DIMATFIT
 70
               3
  9
$DIMFRAC
 70
               0
  9
$DIMLDRBLK
  1

  9
$DIMLUNIT
 70
               4
  9
$DIMLWD
 70
               0
  9
$DIMLWE
 70
               0
  9
$DIMTMOVE
 70
               0
  9
$LUNITS
 70
               4
  9
$LUPREC
 70
               4
  9
$SKETCHINC
 40
0.1
  9
$FILLETRAD
 40
0.0
  9
$AUNITS
 70
               0
  9
$AUPREC
 70
               0
  9
$MENU
  1
acad
  9
$ELEVATION
 40
0.0
  9
$PELEVATION
 40
0.0
  9
$THICKNESS
 40
0.0
  9
$LIMCHECK
 70
               0
  9
$CHAMFERA
 40
0.0
  9
$CHAMFERB
 40
0.0
  9
$CHAMFERC
 40
0.0
  9
$CHAMFERD
 40
0.0
  9
$SKPOLY
 70
               0
  9
$TDCREATE
 40
2452568.766574074
  9
$TDUCREATE
 40
0.000000000
  9
$TDUPDATE
 40
2452568.766574074
  9
$TDUUPDATE
 40
0.000000000
  9
$TDINDWG
 40
0.0000000000
  9
$TDUSRTIMER
 40
0.0000000000
  9
$USRTIMER
 70
               1
  9
$ANGBASE
 50
0.0
  9
$ANGDIR
 70
               0
  9
$PDMODE
 70
               1
  9
$PDSIZE
 40
-2.0
  9
$PLINEWID
 40
0.0
  9
$SPLFRAME
 70
               0
  9
$SPLINETYPE
 70
               6
  9
$SPLINESEGS
 70
               8
  9
$HANDSEED
  5
176
  9
$SURFTAB1
 70
               6
  9
$SURFTAB2
 70
               6
  9
$SURFTYPE
 70
               6
  9
$SURFU
 70
               6
  9
$SURFV
 70
               6
  9
$UCSBASE
  2

  9
$UCSNAME
  2

  9
$UCSORG
 10
0.0
 20
0.0
 30
0.0
  9
$UCSXDIR
 10
1.0
 20
0.0
 30
0.0
  9
$UCSYDIR
 10
0.0
 20
1.0
 30
0.0
  9
$UCSORTHOREF
  2

  9
$UCSORTHOVIEW
 70
               0
  9
$UCSORGTOP
 10
0.0
 20
0.0
 30
0.0
  9
$UCSORGBOTTOM
 10
0.0
 20
0.0
 30
0.0
  9
$UCSORGLEFT
 10
0.0
 20
0.0
 30
0.0
  9
$UCSORGRIGHT
 10
0.0
 20
0.0
 30
0.0
  9
$UCSORGFRONT
 10
0.0
 20
0.0
 30
0.0
  9
$UCSORGBACK
 10
0.0
 20
0.0
 30
0.0
  9
$PUCSBASE
  2

  9
$PUCSNAME
  2

  9
$PUCSORG
 10
0.0
 20
0.0
 30
0.0
  9
$PUCSXDIR
 10
1.0
 20
0.0
 30
0.0
  9
$PUCSYDIR
 10
0.0
 20
1.0
 30
0.0
  9
$PUCSORTHOREF
  2

  9
$PUCSORTHOVIEW
 70
               0
  9
$PUCSORGTOP
 10
0.0
 20
0.0
 30
0.0
  9
$PUCSORGBOTTOM
 10
0.0
 20
0.0
 30
0.0
  9
$PUCSORGLEFT
 10
0.0
 20
0.0
 30
0.0
  9
$PUCSORGRIGHT
 10
0.0
 20
0.0
 30
0.0
  9
$PUCSORGFRONT
 10
0.0
 20
0.0
 30
0.0
  9
$PUCSORGBACK
 10
0.0
 20
0.0
 30
0.0
  9
$USERI1
 70
               0
  9
$USERI2
 70
               0
  9
$USERI3
 70
               0
  9
$USERI4
 70
               0
  9
$USERI5
 70
               0
  9
$USERR1
 40
0.0
  9
$USERR2
 40
0.0
  9
$USERR3
 40
0.0
  9
$USERR4
 40
0.0
  9
$USERR5
 40
0.0
  9
$WORLDVIEW
 70
               1
  9
$SHADEDGE
 70
               3
  9
$SHADEDIF
 70
              70
  9
$TILEMODE
 70
               1
  9
$MAXACTVP
 70
              16
  9
$PINSBASE
 10
0.0
 20
0.0
 30
0.0
  9
$PLIMCHECK
 70
               0
  9
$PEXTMIN
 10
1.0000000000000000E+20
 20
1.0000000000000000E+20
 30
1.0000000000000000E+20
  9
$PEXTMAX
 10
-1.0000000000000000E+20
 20
-1.0000000000000000E+20
 30
-1.0000000000000000E+20
  9
$PLIMMIN
 10
0.0
 20
0.0
  9
$PLIMMAX
 10
12.0
 20
9.0
  9
$UNITMODE
 70
               0
  9
$VISRETAIN
 70
               0
  9
$PLINEGEN
 70
               1
  9
$PSLTSCALE
 70
               0
  9
$TREEDEPTH
 70
            3020
  9
$CMLSTYLE
  2
Standard
  9
$CMLJUST
 70
               0
  9
$CMLSCALE
 40
1.0
  9
$PROXYGRAPHICS
 70
               0
  9
$MEASUREMENT
 70
               0
  9
$CELWEIGHT
370
               0
  9
$ENDCAPS
280
               0
  9
$JOINSTYLE
280
               0
  9
$LWDISPLAY
290
               1
  9
$INSUNITS
 70
               1
  9
$HYPERLINKBASE
  1

  9
$XEDIT
290
               1
  9
$CEPSNTYPE
380
               0
  9
$PSTYLEMODE
290
               1
  9
$FINGERPRINTGUID
  2

  9
$VERSIONGUID
  2

  9
$EXTNAMES
290
               1
  9
$PSVPSCALE
 40
0.0
  0
ENDSEC
  0
SECTION
  2
CLASSES
  0
CLASS
  1
LWPOLYLINE
  2
AcDbPolyline
  3
AutoCAD 2000
 90
    32768
280
               0
281
               1
  0
CLASS
  1
IMAGE
  2
AcDbRasterImage
  3
ISM
 90
    32895
280
               0
281
               1
  0
CLASS
  1
OLE2FRAME
  2
AcDbOle2Frame
  3
AutoCAD 2000
 90
    32768
280
               0
281
               1
  0
CLASS
  1
HATCH
  2
AcDbHatch
  3
AutoCAD 2000
 90
    32768
280
               0
281
               1
  0
CLASS
  1
DICTIONARYVAR
  2
AcDbDictionaryVar
  3
AutoCAD 2000
 90
    32768
280
               0
281
               0
  0
CLASS
  1
RASTERVARIABLES
  2
AcDbRasterVariables
  3
ISM
 90
    32768
280
               0
281
               0
  0
CLASS
  1
IMAGEDEF
  2
AcDbRasterImageDef
  3
ISM
 90
    32768
280
               0
281
               0
  0
CLASS
  1
IMAGEDEF_REACTOR
  2
AcDbRasterImageDefReactor
  3
ISM
 90
    32769
280
               0
281
               0
  0
CLASS
  1
IDBUFFER
  2
AcDbIdBuffer
  3
AutoCAD 2000
 90
    32768
280
               0
281
               0
  0
CLASS
  1
SPATIAL_FILTER
  2
AcDbSpatialFilter
  3
AutoCAD 2000
 90
    32768
280
               0
281
               0
  0
CLASS
  1
XRECORD
  2
AcDbXrecord
  3
AutoCAD 2000
 90
    32768
280
               0
281
               0
  0
CLASS
  1
SORTENTSTABLE
  2
AcDbSortentsTable
  3
AutoCAD 2000
 90
    32768
280
               0
281
               0
  0
CLASS
  1
LAYER_INDEX
  2
AcDbLayerIndex
  3
AutoCAD 2000
 90
    32768
280
               0
281
               0
  0
CLASS
  1
SPATIAL_INDEX
  2
AcDbSpatialIndex
  3
AutoCAD 2000
 90
    32768
280
               0
281
               0
  0
CLASS
  1
OBJECT_PTR
  2
CAseDLPNTableRecord
  3
"ASE-LPNTableRecord"
 90
    32769
280
               0
281
               0
  0
CLASS
  1
LAYOUT
  2
AcDbLayout
  3
AutoCAD 2000
 90
        0
280
               0
281
               0
  0
CLASS
  1
PLOTSETTINGS
  2
AcDbPlotSettings
  3
AutoCAD 2000
 90
    32768
280
               0
281
               0
  0
CLASS
  1
ACDBDICTIONARYWDFLT
  2
AcDbDictionaryWithDefault
  3
AutoCAD 2000
 90
        0
280
               0
281
               0
  0
CLASS
  1
ACDBPLACEHOLDER
  2
AcDbPlaceHolder
  3
AutoCAD 2000
 90
        0
280
               0
281
               0
  0
ENDSEC
  0
SECTION
  2
TABLES
  0
TABLE
  2
VPORT
  5
7
100
AcDbSymbolTable
 70
               1
  0
VPORT
  5
15
100
AcDbSymbolTableRecord
100
AcDbViewportTableRecord
  2
*ACTIVE
 70
               0
 10
0.0
 20
0.0
 11
1.0
 21
1.0
 12
555.10003000000006
 22
325.22062999999997
 13
0.0
 23
0.0
 14
1.0
 24
1.0
 15
0.0
 25
0.0
 16
0.0
 26
0.0
 36
1.0
 17
0.0
 27
0.0
 37
0.0
 40
938.44130000000007
 41
0.688564
 42
50.0
 43
0.0
 44
0.0
 50
0.0
 51
0.0
 71
               0
 72
             100
 73
               1
 74
               1
 75
               0
 76
               0
 77
               0
 78
               0
281
               0
 65
               0
110
0.0
120
0.0
130
0.0
111
1.0
121
0.0
131
0.0
112
0.0
122
1.0
132
0.0
345
0
346
0
 79
               0
146
0.0
  0
ENDTAB
  0
TABLE
  2
LTYPE
  5
4
100
AcDbSymbolTable
 70
              13
  0
LTYPE
  5
11
100
AcDbSymbolTableRecord
100
AcDbLinetypeTableRecord
  2
ByBlock
 70
              64
  3

 72
              65
 73
               0
 40
0.0
  0
LTYPE
  5
12
100
AcDbSymbolTableRecord
100
AcDbLinetypeTableRecord
  2
ByLayer
 70
              64
  3

 72
              65
 73
               0
 40
0.0
  0
LTYPE
  5
13
100
AcDbSymbolTableRecord
100
AcDbLinetypeTableRecord
  2
Continuous
 70
              64
  3
Solid line
 72
              65
 73
               0
 40
0.0
  0
LTYPE
  5
31
100
AcDbSymbolTableRecord
100
AcDbLinetypeTableRecord
  2
STYLE_01
 70
               0
  3

 72
              65
 73
               2
 40
0.4166412353515625
 49
0.208282470703125
 74
               0
 49
-0.2083587646484375
 74
               0
  0
LTYPE
  5
32
100
AcDbSymbolTableRecord
100
AcDbLinetypeTableRecord
  2
STYLE_02
 70
               0
  3

 72
              65
 73
               2
 40
0.694427490234375
 49
0.4860687255859375
 74
               0
 49
-0.2083587646484375
 74
               0
  0
LTYPE
  5
33
100
AcDbSymbolTableRecord
100
AcDbLinetypeTableRecord
  2
STYLE_03
 70
               0
  3

 72
              65
 73
               2
 40
1.25
 49
1.0416412353515625
 74
               0
 49
-0.2083587646484375
 74
               0
  0
LTYPE
  5
34
100
AcDbSymbolTableRecord
100
AcDbLinetypeTableRecord
  2
STYLE_04
 70
               0
  3

 72
              65
 73
               2
 40
1.5277099609375
 49
1.319427490234375
 74
               0
 49
-0.208282470703125
 74
               0
  0
LTYPE
  5
35
100
AcDbSymbolTableRecord
100
AcDbLinetypeTableRecord
  2
STYLE_05
 70
               0
  3

 72
              65
 73
               2
 40
0.208282470703125
 49
0.069427490234375
 74
               0
 49
-0.13885498046875
 74
               0
  0
LTYPE
  5
36
100
AcDbSymbolTableRecord
100
AcDbLinetypeTableRecord
  2
STYLE_06
 70
               0
  3

 72
              65
 73
               4
 40
1.0416412353515625
 49
0.625
 74
               0
 49
-0.208282470703125
 74
               0
 49
0.069427490234375
 74
               0
 49
-0.1389312744140625
 74
               0
  0
LTYPE
  5
37
100
AcDbSymbolTableRecord
100
AcDbLinetypeTableRecord
  2
STYLE_07
 70
               0
  3

 72
              65
 73
               6
 40
1.875
 49
0.625
 74
               0
 49
-0.208282470703125
 74
               0
 49
0.625
 74
               0
 49
-0.2083587646484375
 74
               0
 49
0.069427490234375
 74
               0
 49
-0.1389312744140625
 74
               0
  0
LTYPE
  5
38
100
AcDbSymbolTableRecord
100
AcDbLinetypeTableRecord
  2
STYLE_08
 70
               0
  3

 72
              65
 73
               6
 40
1.25
 49
0.625
 74
               0
 49
-0.208282470703125
 74
               0
 49
0.069427490234375
 74
               0
 49
-0.1389312744140625
 74
               0
 49
0.069427490234375
 74
               0
 49
-0.1389312744140625
 74
               0
  0
LTYPE
  5
39
100
AcDbSymbolTableRecord
100
AcDbLinetypeTableRecord
  2
STYLE_09
 70
               0
  3

 72
              65
 73
               4
 40
5.0
 49
3.75
 74
               0
 49
-0.2777862548828125
 74
               0
 49
0.694427490234375
 74
               0
 49
-0.2777862548828125
 74
               0
  0
LTYPE
  5
3A
100
AcDbSymbolTableRecord
100
AcDbLinetypeTableRecord
  2
STYLE_10
 70
               0
  3

 72
              65
 73
               6
 40
5.9375
 49
3.75
 74
               0
 49
-0.2777862548828125
 74
               0
 49
0.694427490234375
 74
               0
 49
-0.2777862548828125
 74
               0
 49
0.625
 74
               0
 49
-0.3125
 74
               0
  0
ENDTAB
  0
TABLE
  2
LAYER
  5
2
100
AcDbSymbolTable
 70
               3
  0
LAYER
  5
14
100
AcDbSymbolTableRecord
100
AcDbLayerTableRecord
  2
0
 70
               0
 62
               7
  6
Continuous
290
               1
370
              -3
390
1D
  0
LAYER
  5
3B
100
AcDbSymbolTableRecord
100
AcDbLayerTableRecord
  2
None
 70
               0
 62
               7
  6
Continuous
290
               1
370
               5
390
1F
  0
LAYER
  5
3C
100
AcDbSymbolTableRecord
100
AcDbLayerTableRecord
  2
Dimension
 70
               0
 62
               7
  6
Continuous
290
               1
370
               5
390
1F
  0
ENDTAB
  0
TABLE
  2
STYLE
  5
3
100
AcDbSymbolTable
 70
               3
  0
STYLE
  5
17
100
AcDbSymbolTableRecord
100
AcDbTextStyleTableRecord
  2
Standard
 70
               0
 40
0.0
 41
1.0
 50
0.0
 71
               0
 42
0.0
  3
txt
  4

  0
STYLE
  5
2F
100
AcDbSymbolTableRecord
100
AcDbTextStyleTableRecord
  2
Arial
 70
               0
 40
8.0
 41
1.0
 50
0.0
 71
               0
 42
8.0
  3
Arial
  4

1001
ACAD
1000
Arial
1071
        0
  0
STYLE
  5
30
100
AcDbSymbolTableRecord
100
AcDbTextStyleTableRecord
  2
Lydian
 70
               0
 40
15.757241379310345
 41
1.0
 50
0.0
 71
               0
 42
15.757241379310345
  3
Lydian
  4

1001
ACAD
1000
Lydian
1071
        0
  0
ENDTAB
  0
TABLE
  2
VIEW
  5
5
100
AcDbSymbolTable
 70
               0
  0
ENDTAB
  0
TABLE
  2
UCS
  5
6
100
AcDbSymbolTable
 70
               0
  0
ENDTAB
  0
TABLE
  2
APPID
  5
8
100
AcDbSymbolTable
 70
               1
  0
APPID
  5
16
100
AcDbSymbolTableRecord
100
AcDbRegAppTableRecord
  2
ACAD
 70
               0
  0
ENDTAB
  0
TABLE
  2
DIMSTYLE
  5
9
100
AcDbSymbolTable
 70
               1
100
AcDbDimStyleTable
 71
               0
  0
DIMSTYLE
105
18
100
AcDbSymbolTableRecord
100
AcDbDimStyleTableRecord
  2
Standard
 70
               0
  3

  4

 40
1.0
 41
0.18
 42
0.0625
 43
0.38
 44
0.18
 45
0.0
 46
0.0
 47
0.0
 48
0.0
 71
               0
 72
               0
 73
               1
 74
               1
 75
               0
 76
               0
 77
               0
 78
               0
 79
               0
140
0.18
141
0.09
142
0.0
143
25.399999999999999
144
1.0
145
0.0
146
1.0
147
0.09
148
0.0
170
               0
171
               2
172
               0
173
               0
174
               0
175
               0
176
               0
177
               0
178
               0
179
               0
271
               4
272
               4
273
               2
274
               2
275
               0
276
               0
277
               2
278
              46
279
               0
280
               0
281
               0
282
               0
283
               1
284
               0
285
               0
286
               0
288
               0
340
17
341
0
342
0
343
0
344
0
371
              -2
372
              -2
  0
ENDTAB
  0
TABLE
  2
BLOCK_RECORD
  5
1
100
AcDbSymbolTable
 70
              12
  0
BLOCK_RECORD
  5
A
100
AcDbSymbolTableRecord
100
AcDbBlockTableRecord
  2
*MODEL_SPACE
340
20
  0
BLOCK_RECORD
  5
B
100
AcDbSymbolTableRecord
100
AcDbBlockTableRecord
  2
*PAPER_SPACE
340
21
  0
BLOCK_RECORD
  5
23
100
AcDbSymbolTableRecord
100
AcDbBlockTableRecord
  2
*U0
340
0
102
{BLKREFS
331
94
102
}
  0
BLOCK_RECORD
  5
24
100
AcDbSymbolTableRecord
100
AcDbBlockTableRecord
  2
*U1
340
0
102
{BLKREFS
331
56
102
}
  0
BLOCK_RECORD
  5
25
100
AcDbSymbolTableRecord
100
AcDbBlockTableRecord
  2
*U2
340
0
102
{BLKREFS
331
102
102
}
  0
BLOCK_RECORD
  5
26
100
AcDbSymbolTableRecord
100
AcDbBlockTableRecord
  2
*U3
340
0
102
{BLKREFS
331
5F
102
}
  0
BLOCK_RECORD
  5
27
100
AcDbSymbolTableRecord
100
AcDbBlockTableRecord
  2
*U4
340
0
102
{BLKREFS
331
103
102
}
  0
BLOCK_RECORD
  5
28
100
AcDbSymbolTableRecord
100
AcDbBlockTableRecord
  2
*U5
340
0
102
{BLKREFS
331
68
102
}
  0
BLOCK_RECORD
  5
29
100
AcDbSymbolTableRecord
100
AcDbBlockTableRecord
  2
*U6
340
0
102
{BLKREFS
331
104
102
}
  0
BLOCK_RECORD
  5
2A
100
AcDbSymbolTableRecord
100
AcDbBlockTableRecord
  2
*U7
340
0
102
{BLKREFS
331
71
102
}
  0
BLOCK_RECORD
  5
2B
100
AcDbSymbolTableRecord
100
AcDbBlockTableRecord
  2
*U8
340
0
102
{BLKREFS
331
105
102
}
  0
BLOCK_RECORD
  5
2C
100
AcDbSymbolTableRecord
100
AcDbBlockTableRecord
  2
*U9
340
0
102
{BLKREFS
331
7A
102
}
  0
BLOCK_RECORD
  5
2D
100
AcDbSymbolTableRecord
100
AcDbBlockTableRecord
  2
*U10
340
0
102
{BLKREFS
331
106
102
}
  0
BLOCK_RECORD
  5
2E
100
AcDbSymbolTableRecord
100
AcDbBlockTableRecord
  2
*U11
340
0
102
{BLKREFS
331
10C
102
}
  0
ENDTAB
  0
ENDSEC
  0
SECTION
  2
BLOCKS
  0
BLOCK
  5
D
100
AcDbEntity
  8
0
100
AcDbBlockBegin
  2
*MODEL_SPACE
 70
               0
 10
0.0
 20
0.0
 30
0.0
  3
*MODEL_SPACE
  1

  0
ENDBLK
  5
E
100
AcDbEntity
  8
0
100
AcDbBlockEnd
  0
BLOCK
  5
F
100
AcDbEntity
 67
               1
  8
0
100
AcDbBlockBegin
  2
*PAPER_SPACE
 70
               0
 10
0.0
 20
0.0
 30
0.0
  3
*PAPER_SPACE
  1

  0
ENDBLK
  5
10
100
AcDbEntity
 67
               1
  8
0
100
AcDbBlockEnd
  0
BLOCK
  5
3D
100
AcDbEntity
  8
None
100
AcDbBlockBegin
  2
*U0
 70
               1
 10
0.0
 20
0.0
 30
0.0
  3
*U0
  1

  0
LINE
  5
3E
100
AcDbEntity
  8
None
370
              30
  6
Continuous
 62
               7
100
AcDbLine
 10
-117.87512000000001
 20
68.066329999999994
 30
0.0
 11
-117.87512000000001
 21
116.06633000000001
 31
0.0
  0
LINE
  5
3F
100
AcDbEntity
  8
None
370
              30
  6
Continuous
 62
               7
100
AcDbLine
 10
-114.87512
 20
68.066329999999994
 30
0.0
 11
-114.87512
 21
116.06633000000001
 31
0.0
  0
LINE
  5
40
100
AcDbEntity
  8
None
370
              30
  6
Continuous
 62
               7
100
AcDbLine
 10
-102.87512000000001
 20
62.066330000000001
 30
0.0
 11
-102.87512000000001
 21
122.06633000000001
 31
0.0
  0
LINE
  5
41
100
AcDbEntity
  8
None
370
              30
  6
Continuous
 62
               7
100
AcDbLine
 10
-99.875119999999995
 20
62.066330000000001
 30
0.0
 11
-99.875119999999995
 21
122.06633000000001
 31
0.0
  0
LINE
  5
42
100
AcDbEntity
  8
None
370
              30
  6
Continuous
 62
               7
100
AcDbLine
 10
-116.92932
 20
70.75903000000001
 30
0.0
 11
-100.42932
 21
64.259029999999996
 31
0.0
  0
CIRCLE
  5
43
100
AcDbEntity
  8
None
370
              30
  6
Continuous
 62
               7
100
AcDbCircle
 10
-101.31262000000001
 20
63.066330000000001
 30
0.0
 40
1.5000000000000144
  0
CIRCLE
  5
44
100
AcDbEntity
  8
None
370
              30
  6
Continuous
 62
               7
100
AcDbCircle
 10
-116.37512
 20
69.066330000000008
 30
0.0
 40
1.5206906325745508
  0
LINE
  5
45
100
AcDbEntity
  8
None
370
              30
  6
Continuous
 62
               7
100
AcDbLine
 10
-101.86592
 20
61.672130000000003
 30
0.0
 11
-116.93602
 21
67.652829999999994
 31
0.0
  0
CIRCLE
  5
46
100
AcDbEntity
  8
None
370
              30
  6
Continuous
 62
               7
100
AcDbCircle
 10
-116.37512
 20
115.81633000000001
 30
0.0
 40
1.5206906325745684
  0
CIRCLE
  5
47
100
AcDbEntity
  8
None
370
              30
  6
Continuous
 62
               7
100
AcDbCircle
 10
-101.37512
 20
121.58073
 30
0.0
 40
1.5811388300841842
  0
LINE
  5
48
100
AcDbEntity
  8
None
370
              30
  6
Continuous
 62
               7
100
AcDbLine
 10
-102.87512000000001
 20
88.066330000000008
 30
0.0
 11
-114.87512
 21
88.066330000000008
 31
0.0
  0
LINE
  5
49
100
AcDbEntity
  8
None
370
              30
  6
Continuous
 62
               7
100
AcDbLine
 10
-102.87512000000001
 20
91.066330000000008
 30
0.0
 11
-114.87512
 21
91.066330000000008
 31
0.0
  0
LINE
  5
4A
100
AcDbEntity
  8
None
370
              30
  6
Continuous
 62
               7
100
AcDbLine
 10
-107.37512
 20
91.066330000000008
 30
0.0
 11
-107.37512
 21
135.06632999999999
 31
0.0
  0
LINE
  5
4B
100
AcDbEntity
  8
None
370
              30
  6
Continuous
 62
               7
100
AcDbLine
 10
-110.37512000000001
 20
91.066330000000008
 30
0.0
 11
-110.37512000000001
 21
135.06632999999999
 31
0.0
  0
CIRCLE
  5
4C
100
AcDbEntity
  8
None
370
              30
  6
Continuous
 62
               7
100
AcDbCircle
 10
-108.87512
 20
134.66073
 30
0.0
 40
1.7499999999999929
  0
LINE
  5
4D
100
AcDbEntity
  8
None
370
              30
  6
Continuous
 62
               7
100
AcDbLine
 10
-108.87512
 20
136.41073
 30
0.0
 11
-108.87512
 21
353.06632999999999
 31
0.0
  0
ENDBLK
  5
4E
100
AcDbEntity
  8
None
100
AcDbBlockEnd
  0
BLOCK
  5
4F
100
AcDbEntity
  8
None
100
AcDbBlockBegin
  2
*U1
 70
               1
 10
0.0
 20
0.0
 30
0.0
  3
*U1
  1

  0
LINE
  5
50
100
AcDbEntity
  8
None
370
              30
  6
Continuous
 62
               7
100
AcDbLine
 10
-392.87512000000004
 20
-75.933670000000006
 30
0.0
 11
-383.87512000000004
 21
-75.933670000000006
 31
0.0
  0
LINE
  5
51
100
AcDbEntity
  8
None
370
              30
  6
Continuous
 62
               7
100
AcDbLine
 10
-392.87512000000004
 20
-75.933670000000006
 30
0.0
 11
-392.87512000000004
 21
-60.933670000000006
 31
0.0
  0
LINE
  5
52
100
AcDbEntity
  8
None
370
              30
  6
Continuous
 62
               7
100
AcDbLine
 10
-383.87512000000004
 20
-75.933670000000006
 30
0.0
 11
-383.87512000000004
 21
-60.933670000000006
 31
0.0
  0
LINE
  5
53
100
AcDbEntity
  8
None
370
              30
  6
Continuous
 62
               7
100
AcDbLine
 10
-392.87512000000004
 20
-60.933670000000006
 30
0.0
 11
-383.87512000000004
 21
-60.933670000000006
 31
0.0
  0
ENDBLK
  5
54
100
AcDbEntity
  8
None
100
AcDbBlockEnd
  0
BLOCK
  5
55
100
AcDbEntity
  8
None
100
AcDbBlockBegin
  2
*U2
 70
               1
 10
0.0
 20
0.0
 30
0.0
  3
*U2
  1

  0
INSERT
  5
56
100
AcDbEntity
  8
None
 62
               7
100
AcDbBlockReference
  2
*U1
 10
0.0
 20
0.0
 30
0.0
  0
ENDBLK
  5
57
100
AcDbEntity
  8
None
100
AcDbBlockEnd
  0
BLOCK
  5
58
100
AcDbEntity
  8
None
100
AcDbBlockBegin
  2
*U3
 70
               1
 10
0.0
 20
0.0
 30
0.0
  3
*U3
  1

  0
LINE
  5
59
100
AcDbEntity
  8
None
370
              30
  6
Continuous
 62
               7
100
AcDbLine
 10
-392.87512000000004
 20
-36.933670000000006
 30
0.0
 11
-383.87512000000004
 21
-36.933670000000006
 31
0.0
  0
LINE
  5
5A
100
AcDbEntity
  8
None
370
              30
  6
Continuous
 62
               7
100
AcDbLine
 10
-392.87512000000004
 20
-36.933670000000006
 30
0.0
 11
-392.87512000000004
 21
-21.933670000000003
 31
0.0
  0
LINE
  5
5B
100
AcDbEntity
  8
None
370
              30
  6
Continuous
 62
               7
100
AcDbLine
 10
-383.87512000000004
 20
-36.933670000000006
 30
0.0
 11
-383.87512000000004
 21
-21.933670000000003
 31
0.0
  0
LINE
  5
5C
100
AcDbEntity
  8
None
370
              30
  6
Continuous
 62
               7
100
AcDbLine
 10
-392.87512000000004
 20
-21.933670000000003
 30
0.0
 11
-383.87512000000004
 21
-21.933670000000003
 31
0.0
  0
ENDBLK
  5
5D
100
AcDbEntity
  8
None
100
AcDbBlockEnd
  0
BLOCK
  5
5E
100
AcDbEntity
  8
None
100
AcDbBlockBegin
  2
*U4
 70
               1
 10
0.0
 20
0.0
 30
0.0
  3
*U4
  1

  0
INSERT
  5
5F
100
AcDbEntity
  8
None
 62
               7
100
AcDbBlockReference
  2
*U3
 10
0.0
 20
0.0
 30
0.0
  0
ENDBLK
  5
60
100
AcDbEntity
  8
None
100
AcDbBlockEnd
  0
BLOCK
  5
61
100
AcDbEntity
  8
None
100
AcDbBlockBegin
  2
*U5
 70
               1
 10
0.0
 20
0.0
 30
0.0
  3
*U5
  1

  0
LINE
  5
62
100
AcDbEntity
  8
None
370
              30
  6
Continuous
 62
               7
100
AcDbLine
 10
-392.87512000000004
 20
2.0663299999999998
 30
0.0
 11
-383.87512000000004
 21
2.0663299999999998
 31
0.0
  0
LINE
  5
63
100
AcDbEntity
  8
None
370
              30
  6
Continuous
 62
               7
100
AcDbLine
 10
-392.87512000000004
 20
2.0663299999999998
 30
0.0
 11
-392.87512000000004
 21
17.066330000000001
 31
0.0
  0
LINE
  5
64
100
AcDbEntity
  8
None
370
              30
  6
Continuous
 62
               7
100
AcDbLine
 10
-383.87512000000004
 20
2.0663299999999998
 30
0.0
 11
-383.87512000000004
 21
17.066330000000001
 31
0.0
  0
LINE
  5
65
100
AcDbEntity
  8
None
370
              30
  6
Continuous
 62
               7
100
AcDbLine
 10
-392.87512000000004
 20
17.066330000000001
 30
0.0
 11
-383.87512000000004
 21
17.066330000000001
 31
0.0
  0
ENDBLK
  5
66
100
AcDbEntity
  8
None
100
AcDbBlockEnd
  0
BLOCK
  5
67
100
AcDbEntity
  8
None
100
AcDbBlockBegin
  2
*U6
 70
               1
 10
0.0
 20
0.0
 30
0.0
  3
*U6
  1

  0
INSERT
  5
68
100
AcDbEntity
  8
None
 62
               7
100
AcDbBlockReference
  2
*U5
 10
0.0
 20
0.0
 30
0.0
  0
ENDBLK
  5
69
100
AcDbEntity
  8
None
100
AcDbBlockEnd
  0
BLOCK
  5
6A
100
AcDbEntity
  8
None
100
AcDbBlockBegin
  2
*U7
 70
               1
 10
0.0
 20
0.0
 30
0.0
  3
*U7
  1

  0
LINE
  5
6B
100
AcDbEntity
  8
None
370
              30
  6
Continuous
 62
               7
100
AcDbLine
 10
-392.87512000000004
 20
39.066330000000001
 30
0.0
 11
-383.87512000000004
 21
39.066330000000001
 31
0.0
  0
LINE
  5
6C
100
AcDbEntity
  8
None
370
              30
  6
Continuous
 62
               7
100
AcDbLine
 10
-392.87512000000004
 20
39.066330000000001
 30
0.0
 11
-392.87512000000004
 21
54.066330000000001
 31
0.0
  0
LINE
  5
6D
100
AcDbEntity
  8
None
370
              30
  6
Continuous
 62
               7
100
AcDbLine
 10
-383.87512000000004
 20
39.066330000000001
 30
0.0
 11
-383.87512000000004
 21
54.066330000000001
 31
0.0
  0
LINE
  5
6E
100
AcDbEntity
  8
None
370
              30
  6
Continuous
 62
               7
100
AcDbLine
 10
-392.87512000000004
 20
54.066330000000001
 30
0.0
 11
-383.87512000000004
 21
54.066330000000001
 31
0.0
  0
ENDBLK
  5
6F
100
AcDbEntity
  8
None
100
AcDbBlockEnd
  0
BLOCK
  5
70
100
AcDbEntity
  8
None
100
AcDbBlockBegin
  2
*U8
 70
               1
 10
0.0
 20
0.0
 30
0.0
  3
*U8
  1

  0
INSERT
  5
71
100
AcDbEntity
  8
None
 62
               7
100
AcDbBlockReference
  2
*U7
 10
0.0
 20
0.0
 30
0.0
  0
ENDBLK
  5
72
100
AcDbEntity
  8
None
100
AcDbBlockEnd
  0
BLOCK
  5
73
100
AcDbEntity
  8
None
100
AcDbBlockBegin
  2
*U9
 70
               1
 10
0.0
 20
0.0
 30
0.0
  3
*U9
  1

  0
LINE
  5
74
100
AcDbEntity
  8
None
370
              30
  6
Continuous
 62
               7
100
AcDbLine
 10
-392.87512000000004
 20
85.066329999999994
 30
0.0
 11
-383.87512000000004
 21
85.066329999999994
 31
0.0
  0
LINE
  5
75
100
AcDbEntity
  8
None
370
              30
  6
Continuous
 62
               7
100
AcDbLine
 10
-392.87512000000004
 20
85.066329999999994
 30
0.0
 11
-392.87512000000004
 21
100.06632999999999
 31
0.0
  0
LINE
  5
76
100
AcDbEntity
  8
None
370
              30
  6
Continuous
 62
               7
100
AcDbLine
 10
-383.87512000000004
 20
85.066329999999994
 30
0.0
 11
-383.87512000000004
 21
100.06632999999999
 31
0.0
  0
LINE
  5
77
100
AcDbEntity
  8
None
370
              30
  6
Continuous
 62
               7
100
AcDbLine
 10
-392.87512000000004
 20
100.06632999999999
 30
0.0
 11
-383.87512000000004
 21
100.06632999999999
 31
0.0
  0
ENDBLK
  5
78
100
AcDbEntity
  8
None
100
AcDbBlockEnd
  0
BLOCK
  5
79
100
AcDbEntity
  8
None
100
AcDbBlockBegin
  2
*U10
 70
               1
 10
0.0
 20
0.0
 30
0.0
  3
*U10
  1

  0
INSERT
  5
7A
100
AcDbEntity
  8
None
 62
               7
100
AcDbBlockReference
  2
*U9
 10
0.0
 20
0.0
 30
0.0
  0
ENDBLK
  5
7B
100
AcDbEntity
  8
None
100
AcDbBlockEnd
  0
BLOCK
  5
7C
100
AcDbEntity
  8
None
100
AcDbBlockBegin
  2
*U11
 70
               1
 10
0.0
 20
0.0
 30
0.0
  3
*U11
  1

  0
LINE
  5
7D
100
AcDbEntity
  8
None
370
              30
  6
Continuous
 62
               7
100
AcDbLine
 10
-243.87512000000001
 20
-333.93367000000001
 30
0.0
 11
-243.87512000000001
 21
-348.93367000000001
 31
0.0
  0
LINE
  5
7E
100
AcDbEntity
  8
None
370
              30
  6
Continuous
 62
               7
100
AcDbLine
 10
-246.87512000000001
 20
-348.93367000000001
 30
0.0
 11
-240.87512000000001
 21
-348.93367000000001
 31
0.0
  0
ENDBLK
  5
7F
100
AcDbEntity
  8
None
100
AcDbBlockEnd
  0
ENDSEC
  0
SECTION
  2
ENTITIES
  0
LINE
  5
80
100
AcDbEntity
  8
None
370
              30
  6
Continuous
 62
               7
100
AcDbLine
 10
0.0000299999999811
 20
-0.0000200000000063
 30
0.0
 11
0.0000299999999811
 21
748.99998000000005
 31
0.0
  0
LINE
  5
81
100
AcDbEntity
  8
None
370
              30
  6
Continuous
 62
               7
100
AcDbLine
 10
0.0000299999999811
 20
748.99998000000005
 30
0.0
 11
558.00003000000004
 21
748.99998000000005
 31
0.0
  0
LINE
  5
82
100
AcDbEntity
  8
None
370
              30
  6
Continuous
 62
               7
100
AcDbLine
 10
0.0000299999999811
 20
-0.0000200000000063
 30
0.0
 11
564.00003000000004
 21
-0.0000200000000063
 31
0.0
  0
LINE
  5
83
100
AcDbEntity
  8
None
370
              15
  6
Continuous
 62
               7
100
AcDbLine
 10
0.0000299999999811
 20
-0.0000200000000063
 30
0.0
 11
145.00002999999998
 21
-0.0000200000000063
 31
0.0
  0
LINE
  5
84
100
AcDbEntity
  8
None
370
              15
  6
Continuous
 62
               7
100
AcDbLine
 10
0.0000299999999811
 20
-0.0000200000000063
 30
0.0
 11
408.00003000000004
 21
-0.0000200000000063
 31
0.0
  0
LINE
  5
85
100
AcDbEntity
  8
None
370
              30
  6
Continuous
 62
               7
100
AcDbLine
 10
408.00003000000004
 20
-0.0000200000000063
 30
0.0
 11
408.00003000000004
 21
686.99998000000005
 31
0.0
  0
LINE
  5
86
100
AcDbEntity
  8
None
370
              30
  6
Continuous
 62
               7
100
AcDbLine
 10
402.00003000000004
 20
-0.0000200000000063
 30
0.0
 11
402.00003000000004
 21
686.99998000000005
 31
0.0
  0
LINE
  5
87
100
AcDbEntity
  8
None
370
              15
  6
Continuous
 62
               7
100
AcDbLine
 10
99.000029999999981
 20
-0.0000200000000063
 30
0.0
 11
99.000029999999981
 21
686.99998000000005
 31
0.0
  0
LINE
  5
88
100
AcDbEntity
  8
None
370
              15
  6
Continuous
 62
               7
100
AcDbLine
 10
0.0000299999999811
 20
686.99998000000005
 30
0.0
 11
408.00003000000004
 21
686.99998000000005
 31
0.0
  0
LINE
  5
89
100
AcDbEntity
  8
None
370
              30
  6
Continuous
 62
               7
100
AcDbLine
 10
564.00003000000004
 20
-0.0000200000000063
 30
0.0
 11
564.00003000000004
 21
-120.00002000000001
 31
0.0
  0
LINE
  5
8A
100
AcDbEntity
  8
None
370
              30
  6
Continuous
 62
               7
100
AcDbLine
 10
438.00003000000004
 20
-0.0000200000000063
 30
0.0
 11
0.0000299999999811
 21
-0.0000200000000063
 31
0.0
  0
LINE
  5
8B
100
AcDbEntity
  8
None
370
              15
  6
Continuous
 62
               7
100
AcDbLine
 10
432.00003000000004
 20
134.99997999999999
 30
0.0
 11
432.00003000000004
 21
-0.0000200000000063
 31
0.0
  0
LINE
  5
8C
100
AcDbEntity
  8
None
370
              15
  6
Continuous
 62
               7
100
AcDbLine
 10
432.00003000000004
 20
134.99997999999999
 30
0.0
 11
555.00003000000004
 21
134.99997999999999
 31
0.0
  0
LINE
  5
8D
100
AcDbEntity
  8
None
370
              15
  6
Continuous
 62
               7
100
AcDbLine
 10
555.00003000000004
 20
-0.0000200000000063
 30
0.0
 11
555.00003000000004
 21
134.99997999999999
 31
0.0
  0
LINE
  5
8E
100
AcDbEntity
  8
None
370
              15
  6
Continuous
 62
               7
100
AcDbLine
 10
498.00003000000004
 20
134.99997999999999
 30
0.0
 11
498.00003000000004
 21
-0.0000200000000063
 31
0.0
  0
LINE
  5
8F
100
AcDbEntity
  8
None
370
              30
  6
Continuous
 62
               7
100
AcDbLine
 10
408.00003000000004
 20
356.99997999999999
 30
0.0
 11
432.00003000000004
 21
356.99997999999999
 31
0.0
  0
LINE
  5
90
100
AcDbEntity
  8
None
370
              30
  6
Continuous
 62
               7
100
AcDbLine
 10
432.00003000000004
 20
566.99998000000005
 30
0.0
 11
432.00003000000004
 21
356.99997999999999
 31
0.0
  0
LINE
  5
91
100
AcDbEntity
  8
None
370
              15
  6
Continuous
 62
               7
100
AcDbLine
 10
405.00003000000004
 20
686.99998000000005
 30
0.0
 11
405.00003000000004
 21
329.99997999999999
 31
0.0
  0
CIRCLE
  5
92
100
AcDbEntity
  8
None
370
              15
  6
Continuous
 62
               7
100
AcDbCircle
 10
405.00003000000004
 20
329.99997999999999
 30
0.0
 40
0.4999608484671578
  0
CIRCLE
  5
93
100
AcDbEntity
  8
None
370
              15
  6
Continuous
 62
               7
100
AcDbCircle
 10
0.0000299999999811
 20
-0.0000200000000063
 30
0.0
 40
1.5000000000000144
  0
INSERT
  5
94
100
AcDbEntity
  8
None
 62
               7
100
AcDbBlockReference
  2
*U0
 10
477.87515000000002
 20
333.93365
 30
0.0
  0
LINE
  5
95
100
AcDbEntity
  8
None
370
              30
  6
Continuous
 62
               7
100
AcDbLine
 10
144.96983
 20
401.99997999999999
 30
0.0
 11
144.96983
 21
449.99997999999999
 31
0.0
  0
LINE
  5
96
100
AcDbEntity
  8
None
370
              30
  6
Continuous
 62
               7
100
AcDbLine
 10
147.96983000000006
 20
401.99997999999999
 30
0.0
 11
147.96983000000006
 21
449.99997999999999
 31
0.0
  0
LINE
  5
97
100
AcDbEntity
  8
None
370
              30
  6
Continuous
 62
               7
100
AcDbLine
 10
159.96983
 20
395.99997999999999
 30
0.0
 11
159.96983
 21
455.99997999999999
 31
0.0
  0
LINE
  5
98
100
AcDbEntity
  8
None
370
              30
  6
Continuous
 62
               7
100
AcDbLine
 10
162.96983
 20
395.99997999999999
 30
0.0
 11
162.96983
 21
455.99997999999999
 31
0.0
  0
LINE
  5
99
100
AcDbEntity
  8
None
370
              30
  6
Continuous
 62
               7
100
AcDbLine
 10
145.91563000000002
 20
404.69268
 30
0.0
 11
162.41563000000002
 21
398.19268
 31
0.0
  0
CIRCLE
  5
9A
100
AcDbEntity
  8
None
370
              30
  6
Continuous
 62
               7
100
AcDbCircle
 10
161.53233
 20
396.99997999999999
 30
0.0
 40
1.5000000000000144
  0
CIRCLE
  5
9B
100
AcDbEntity
  8
None
370
              30
  6
Continuous
 62
               7
100
AcDbCircle
 10
146.46983
 20
402.99997999999999
 30
0.0
 40
1.5206906325745684
  0
LINE
  5
9C
100
AcDbEntity
  8
None
370
              30
  6
Continuous
 62
               7
100
AcDbLine
 10
160.97903000000002
 20
395.60577999999998
 30
0.0
 11
145.90893
 21
401.58647999999999
 31
0.0
  0
CIRCLE
  5
9D
100
AcDbEntity
  8
None
370
              30
  6
Continuous
 62
               7
100
AcDbCircle
 10
146.46983
 20
449.74997999999999
 30
0.0
 40
1.5206906325745684
  0
CIRCLE
  5
9E
100
AcDbEntity
  8
None
370
              30
  6
Continuous
 62
               7
100
AcDbCircle
 10
161.46983
 20
455.51438000000002
 30
0.0
 40
1.5811388300841671
  0
LINE
  5
9F
100
AcDbEntity
  8
None
370
              30
  6
Continuous
 62
               7
100
AcDbLine
 10
159.96983
 20
421.99997999999999
 30
0.0
 11
147.96983000000006
 21
421.99997999999999
 31
0.0
  0
LINE
  5
A0
100
AcDbEntity
  8
None
370
              30
  6
Continuous
 62
               7
100
AcDbLine
 10
159.96983
 20
424.99997999999999
 30
0.0
 11
147.96983000000006
 21
424.99997999999999
 31
0.0
  0
LINE
  5
A1
100
AcDbEntity
  8
None
370
              30
  6
Continuous
 62
               7
100
AcDbLine
 10
155.46983
 20
424.99997999999999
 30
0.0
 11
155.46983
 21
468.99997999999999
 31
0.0
  0
LINE
  5
A2
100
AcDbEntity
  8
None
370
              30
  6
Continuous
 62
               7
100
AcDbLine
 10
152.46983
 20
424.99997999999999
 30
0.0
 11
152.46983
 21
468.99997999999999
 31
0.0
  0
CIRCLE
  5
A3
100
AcDbEntity
  8
None
370
              30
  6
Continuous
 62
               7
100
AcDbCircle
 10
153.96983
 20
468.59438
 30
0.0
 40
1.7499999999999929
  0
LINE
  5
A4
100
AcDbEntity
  8
None
370
              30
  6
Continuous
 62
               7
100
AcDbLine
 10
153.96983
 20
470.34438
 30
0.0
 11
153.96983
 21
686.99998000000005
 31
0.0
  0
LINE
  5
A5
100
AcDbEntity
  8
None
370
              30
  6
Continuous
 62
               7
100
AcDbLine
 10
432.00003000000004
 20
313.99997999999999
 30
0.0
 11
516.00003000000004
 21
313.99997999999999
 31
0.0
  0
LINE
  5
A6
100
AcDbEntity
  8
None
370
              30
  6
Continuous
 62
               7
100
AcDbLine
 10
432.00003000000004
 20
322.99997999999999
 30
0.0
 11
432.00003000000004
 21
313.99997999999999
 31
0.0
  0
LINE
  5
A7
100
AcDbEntity
  8
None
370
              30
  6
Continuous
 62
               7
100
AcDbLine
 10
516.00003000000004
 20
322.99997999999999
 30
0.0
 11
432.00003000000004
 21
322.99997999999999
 31
0.0
  0
LINE
  5
A8
100
AcDbEntity
  8
None
370
              30
  6
Continuous
 62
               7
100
AcDbLine
 10
516.00003000000004
 20
313.99997999999999
 30
0.0
 11
516.00003000000004
 21
322.99997999999999
 31
0.0
  0
LINE
  5
A9
100
AcDbEntity
  8
None
370
              30
  6
Continuous
 62
               7
100
AcDbLine
 10
559.00003000000004
 20
381.99997999999999
 30
0.0
 11
643.00003000000004
 21
381.99997999999999
 31
0.0
  0
LINE
  5
AA
100
AcDbEntity
  8
None
370
              30
  6
Continuous
 62
               7
100
AcDbLine
 10
559.00003000000004
 20
390.99997999999999
 30
0.0
 11
559.00003000000004
 21
381.99997999999999
 31
0.0
  0
LINE
  5
AB
100
AcDbEntity
  8
None
370
              30
  6
Continuous
 62
               7
100
AcDbLine
 10
643.00003000000004
 20
390.99997999999999
 30
0.0
 11
559.00003000000004
 21
390.99997999999999
 31
0.0
  0
LINE
  5
AC
100
AcDbEntity
  8
None
370
              30
  6
Continuous
 62
               7
100
AcDbLine
 10
643.00003000000004
 20
381.99997999999999
 30
0.0
 11
643.00003000000004
 21
390.99997999999999
 31
0.0
  0
LINE
  5
AD
100
AcDbEntity
  8
None
370
              30
  6
Continuous
 62
               7
100
AcDbLine
 10
652.00003000000004
 20
403.99997999999999
 30
0.0
 11
736.00003000000004
 21
403.99997999999999
 31
0.0
  0
LINE
  5
AE
100
AcDbEntity
  8
None
370
              30
  6
Continuous
 62
               7
100
AcDbLine
 10
652.00003000000004
 20
412.99997999999999
 30
0.0
 11
652.00003000000004
 21
403.99997999999999
 31
0.0
  0
LINE
  5
AF
100
AcDbEntity
  8
None
370
              30
  6
Continuous
 62
               7
100
AcDbLine
 10
736.00003000000004
 20
412.99997999999999
 30
0.0
 11
652.00003000000004
 21
412.99997999999999
 31
0.0
  0
LINE
  5
B0
100
AcDbEntity
  8
None
370
              30
  6
Continuous
 62
               7
100
AcDbLine
 10
736.00003000000004
 20
403.99997999999999
 30
0.0
 11
736.00003000000004
 21
412.99997999999999
 31
0.0
  0
CIRCLE
  5
B1
100
AcDbEntity
  8
None
370
               5
  6
Continuous
 62
               7
100
AcDbCircle
 10
0.0000299999999811
 20
-0.0000200000000063
 30
0.0
 40
1.5000000000000144
  0
LINE
  5
B2
100
AcDbEntity
  8
None
370
              30
  6
Continuous
 62
               7
100
AcDbLine
 10
740.00003000000004
 20
355.99997999999999
 30
0.0
 11
740.00003000000004
 21
403.99997999999999
 31
0.0
  0
LINE
  5
B3
100
AcDbEntity
  8
None
370
              30
  6
Continuous
 62
               7
100
AcDbLine
 10
785.00003000000004
 20
355.99997999999999
 30
0.0
 11
740.00003000000004
 21
355.99997999999999
 31
0.0
  0
LINE
  5
B4
100
AcDbEntity
  8
None
370
              30
  6
Continuous
 62
               7
100
AcDbLine
 10
785.00003000000004
 20
355.99997999999999
 30
0.0
 11
785.00003000000004
 21
403.99997999999999
 31
0.0
  0
LINE
  5
B5
100
AcDbEntity
  8
None
370
              30
  6
Continuous
 62
               7
100
AcDbLine
 10
740.00003000000004
 20
360.99997999999999
 30
0.0
 11
785.00003000000004
 21
360.99997999999999
 31
0.0
  0
LINE
  5
B6
100
AcDbEntity
  8
None
370
              30
  6
Continuous
 62
               7
100
AcDbLine
 10
743.00003000000004
 20
360.99997999999999
 30
0.0
 11
743.00003000000004
 21
403.99997999999999
 31
0.0
  0
LINE
  5
B7
100
AcDbEntity
  8
None
370
              30
  6
Continuous
 62
               7
100
AcDbLine
 10
782.00003000000004
 20
360.99997999999999
 30
0.0
 11
782.00003000000004
 21
403.99997999999999
 31
0.0
  0
CIRCLE
  5
B8
100
AcDbEntity
  8
None
370
              30
  6
Continuous
 62
               7
100
AcDbCircle
 10
741.50003000000004
 20
403.99997999999999
 30
0.0
 40
1.500010453296915
  0
CIRCLE
  5
B9
100
AcDbEntity
  8
None
370
              30
  6
Continuous
 62
               7
100
AcDbCircle
 10
741.50003000000004
 20
385.99997999999999
 30
0.0
 40
1.4999840665820423
  0
CIRCLE
  5
BA
100
AcDbEntity
  8
None
370
              30
  6
Continuous
 62
               7
100
AcDbCircle
 10
783.50003000000004
 20
403.99997999999999
 30
0.0
 40
1.4999840665820423
  0
CIRCLE
  5
BB
100
AcDbEntity
  8
None
370
              30
  6
Continuous
 62
               7
100
AcDbCircle
 10
783.50003000000004
 20
385.99997999999999
 30
0.0
 40
1.4999840665820454
  0
CIRCLE
  5
BC
100
AcDbEntity
  8
None
370
              30
  6
Continuous
 62
               7
100
AcDbCircle
 10
783.50003000000004
 20
376.99997999999999
 30
0.0
 40
1.500009239971535
  0
LINE
  5
BD
100
AcDbEntity
  8
None
370
              30
  6
Continuous
 62
               7
100
AcDbLine
 10
1008.0000299999999
 20
395.99997999999999
 30
0.0
 11
1008.0000299999999
 21
443.99997999999999
 31
0.0
  0
LINE
  5
BE
100
AcDbEntity
  8
None
370
              30
  6
Continuous
 62
               7
100
AcDbLine
 10
1053.0000299999999
 20
395.99997999999999
 30
0.0
 11
1008.0000299999999
 21
395.99997999999999
 31
0.0
  0
LINE
  5
BF
100
AcDbEntity
  8
None
370
              30
  6
Continuous
 62
               7
100
AcDbLine
 10
1053.0000299999999
 20
395.99997999999999
 30
0.0
 11
1053.0000299999999
 21
443.99997999999999
 31
0.0
  0
LINE
  5
C0
100
AcDbEntity
  8
None
370
              30
  6
Continuous
 62
               7
100
AcDbLine
 10
1008.0000299999999
 20
400.99997999999999
 30
0.0
 11
1053.0000299999999
 21
400.99997999999999
 31
0.0
  0
LINE
  5
C1
100
AcDbEntity
  8
None
370
              30
  6
Continuous
 62
               7
100
AcDbLine
 10
1011.0000299999999
 20
400.99997999999999
 30
0.0
 11
1011.0000299999999
 21
443.99997999999999
 31
0.0
  0
LINE
  5
C2
100
AcDbEntity
  8
None
370
              30
  6
Continuous
 62
               7
100
AcDbLine
 10
1050.0000300000002
 20
400.99997999999999
 30
0.0
 11
1050.0000300000002
 21
443.99997999999999
 31
0.0
  0
CIRCLE
  5
C3
100
AcDbEntity
  8
None
370
              30
  6
Continuous
 62
               7
100
AcDbCircle
 10
1009.5000299999999
 20
443.99997999999999
 30
0.0
 40
1.5000104532969061
  0
CIRCLE
  5
C4
100
AcDbEntity
  8
None
370
              30
  6
Continuous
 62
               7
100
AcDbCircle
 10
1009.5000299999999
 20
425.99997999999999
 30
0.0
 40
1.4999840665820483
  0
CIRCLE
  5
C5
100
AcDbEntity
  8
None
370
              30
  6
Continuous
 62
               7
100
AcDbCircle
 10
1051.5000300000002
 20
443.99997999999999
 30
0.0
 40
1.4999840665820483
  0
CIRCLE
  5
C6
100
AcDbEntity
  8
None
370
              30
  6
Continuous
 62
               7
100
AcDbCircle
 10
1051.5000300000002
 20
425.99997999999999
 30
0.0
 40
1.4999840665820423
  0
CIRCLE
  5
C7
100
AcDbEntity
  8
None
370
              30
  6
Continuous
 62
               7
100
AcDbCircle
 10
1051.5000300000002
 20
416.99997999999999
 30
0.0
 40
1.5000092399715292
  0
LINE
  5
C8
100
AcDbEntity
  8
None
370
              30
  6
Continuous
 62
               7
100
AcDbLine
 10
711.00003000000004
 20
122.99997999999997
 30
0.0
 11
711.00003000000004
 21
359.99997999999999
 31
0.0
  0
LINE
  5
C9
100
AcDbEntity
  8
None
370
              30
  6
Continuous
 62
               7
100
AcDbLine
 10
726.00003000000004
 20
122.99997999999997
 30
0.0
 11
726.00003000000004
 21
359.99997999999999
 31
0.0
  0
LINE
  5
CA
100
AcDbEntity
  8
None
370
              30
  6
Continuous
 62
               7
100
AcDbLine
 10
711.00003000000004
 20
122.99997999999997
 30
0.0
 11
726.00003000000004
 21
122.99997999999997
 31
0.0
  0
LINE
  5
CB
100
AcDbEntity
  8
None
370
              30
  6
Continuous
 62
               7
100
AcDbLine
 10
711.00003000000004
 20
359.99997999999999
 30
0.0
 11
726.00003000000004
 21
359.99997999999999
 31
0.0
  0
LINE
  5
CC
100
AcDbEntity
  8
None
370
              30
  6
Continuous
 62
               7
100
AcDbLine
 10
961.00003000000004
 20
206.99997999999999
 30
0.0
 11
961.00003000000004
 21
398.99997999999999
 31
0.0
  0
LINE
  5
CD
100
AcDbEntity
  8
None
370
              30
  6
Continuous
 62
               7
100
AcDbLine
 10
976.00003000000004
 20
206.99997999999999
 30
0.0
 11
976.00003000000004
 21
398.99997999999999
 31
0.0
  0
LINE
  5
CE
100
AcDbEntity
  8
None
370
              30
  6
Continuous
 62
               7
100
AcDbLine
 10
961.00003000000004
 20
206.99997999999999
 30
0.0
 11
976.00003000000004
 21
206.99997999999999
 31
0.0
  0
LINE
  5
CF
100
AcDbEntity
  8
None
370
              30
  6
Continuous
 62
               7
100
AcDbLine
 10
961.00003000000004
 20
398.99997999999999
 30
0.0
 11
976.00003000000004
 21
398.99997999999999
 31
0.0
  0
LINE
  5
D0
100
AcDbEntity
  8
None
370
              15
  6
Continuous
 62
               7
100
AcDbLine
 10
564.00003000000004
 20
-9.0000200000000632
 30
0.0
 11
573.00003000000004
 21
-9.0000200000000632
 31
0.0
  0
LINE
  5
D1
100
AcDbEntity
  8
None
370
              15
  6
Continuous
 62
               7
100
AcDbLine
 10
573.00003000000004
 20
-9.0000200000000632
 30
0.0
 11
573.00003000000004
 21
-18.000020000000006
 31
0.0
  0
LINE
  5
D2
100
AcDbEntity
  8
None
370
              15
  6
Continuous
 62
               7
100
AcDbLine
 10
573.00003000000004
 20
-18.000020000000006
 30
0.0
 11
582.00003000000004
 21
-18.000020000000006
 31
0.0
  0
LINE
  5
D3
100
AcDbEntity
  8
None
370
              15
  6
Continuous
 62
               7
100
AcDbLine
 10
582.00003000000004
 20
-18.000020000000006
 30
0.0
 11
582.00003000000004
 21
-27.000020000000006
 31
0.0
  0
LINE
  5
D4
100
AcDbEntity
  8
None
370
              15
  6
Continuous
 62
               7
100
AcDbLine
 10
582.00003000000004
 20
-27.000020000000006
 30
0.0
 11
591.00003000000004
 21
-27.000020000000006
 31
0.0
  0
LINE
  5
D5
100
AcDbEntity
  8
None
370
              15
  6
Continuous
 62
               7
100
AcDbLine
 10
591.00003000000004
 20
-27.000020000000006
 30
0.0
 11
591.00003000000004
 21
-36.000020000000006
 31
0.0
  0
LINE
  5
D6
100
AcDbEntity
  8
None
370
              15
  6
Continuous
 62
               7
100
AcDbLine
 10
591.00003000000004
 20
-36.000020000000006
 30
0.0
 11
600.00003000000004
 21
-36.000020000000006
 31
0.0
  0
LINE
  5
D7
100
AcDbEntity
  8
None
370
              15
  6
Continuous
 62
               7
100
AcDbLine
 10
600.00003000000004
 20
-36.000020000000006
 30
0.0
 11
600.00003000000004
 21
-45.000020000000006
 31
0.0
  0
LINE
  5
D8
100
AcDbEntity
  8
None
370
              30
  6
Continuous
 62
               7
100
AcDbLine
 10
564.00003000000004
 20
-45.000020000000006
 30
0.0
 11
660.00003000000004
 21
-45.000020000000006
 31
0.0
  0
LINE
  5
D9
100
AcDbEntity
  8
None
370
              30
  6
Continuous
 62
               7
100
AcDbLine
 10
660.00003000000004
 20
-45.000020000000006
 30
0.0
 11
660.00003000000004
 21
-33.000020000000006
 31
0.0
  0
LINE
  5
DA
100
AcDbEntity
  8
None
370
              30
  6
Continuous
 62
               7
100
AcDbLine
 10
660.00003000000004
 20
-33.000020000000006
 30
0.0
 11
705.00003000000004
 21
-33.000020000000006
 31
0.0
  0
LINE
  5
DB
100
AcDbEntity
  8
None
370
              30
  6
Continuous
 62
               7
100
AcDbLine
 10
705.00003000000004
 20
-33.000020000000006
 30
0.0
 11
705.00003000000004
 21
-21.000020000000006
 31
0.0
  0
LINE
  5
DC
100
AcDbEntity
  8
None
370
              30
  6
Continuous
 62
               7
100
AcDbLine
 10
705.00003000000004
 20
-21.000020000000006
 30
0.0
 11
750.00003000000004
 21
-21.000020000000006
 31
0.0
  0
LINE
  5
DD
100
AcDbEntity
  8
None
370
              30
  6
Continuous
 62
               7
100
AcDbLine
 10
750.00003000000004
 20
-21.000020000000006
 30
0.0
 11
750.00003000000004
 21
-9.0000200000000632
 31
0.0
  0
LINE
  5
DE
100
AcDbEntity
  8
None
370
              30
  6
Continuous
 62
               7
100
AcDbLine
 10
750.00003000000004
 20
-9.0000200000000632
 30
0.0
 11
795.00003000000004
 21
-9.0000200000000632
 31
0.0
  0
LINE
  5
DF
100
AcDbEntity
  8
None
370
              30
  6
Continuous
 62
               7
100
AcDbLine
 10
795.00003000000004
 20
-9.0000200000000632
 30
0.0
 11
795.00003000000004
 21
2.9999799999999937
 31
0.0
  0
LINE
  5
E0
100
AcDbEntity
  8
None
370
              30
  6
Continuous
 62
               7
100
AcDbLine
 10
795.00003000000004
 20
2.9999799999999937
 30
0.0
 11
840.00003000000004
 21
2.9999799999999937
 31
0.0
  0
LINE
  5
E1
100
AcDbEntity
  8
None
370
              30
  6
Continuous
 62
               7
100
AcDbLine
 10
840.00003000000004
 20
2.9999799999999937
 30
0.0
 11
840.00003000000004
 21
14.999979999999994
 31
0.0
  0
LINE
  5
E2
100
AcDbEntity
  8
None
370
              30
  6
Continuous
 62
               7
100
AcDbLine
 10
840.00003000000004
 20
14.999979999999994
 30
0.0
 11
885.00003000000004
 21
14.999979999999994
 31
0.0
  0
LINE
  5
E3
100
AcDbEntity
  8
None
370
              30
  6
Continuous
 62
               7
100
AcDbLine
 10
885.00003000000004
 20
14.999979999999994
 30
0.0
 11
885.00003000000004
 21
26.999979999999994
 31
0.0
  0
LINE
  5
E4
100
AcDbEntity
  8
None
370
              30
  6
Continuous
 62
               7
100
AcDbLine
 10
885.00003000000004
 20
26.999979999999994
 30
0.0
 11
930.00003000000004
 21
26.999979999999994
 31
0.0
  0
LINE
  5
E5
100
AcDbEntity
  8
None
370
              30
  6
Continuous
 62
               7
100
AcDbLine
 10
930.00003000000004
 20
26.999979999999994
 30
0.0
 11
930.00003000000004
 21
38.999979999999994
 31
0.0
  0
LINE
  5
E6
100
AcDbEntity
  8
None
370
              30
  6
Continuous
 62
               7
100
AcDbLine
 10
930.00003000000004
 20
38.999979999999994
 30
0.0
 11
975.00003000000004
 21
38.999979999999994
 31
0.0
  0
LINE
  5
E7
100
AcDbEntity
  8
None
370
              30
  6
Continuous
 62
               7
100
AcDbLine
 10
975.00003000000004
 20
38.999979999999994
 30
0.0
 11
975.00003000000004
 21
50.999979999999994
 31
0.0
  0
LINE
  5
E8
100
AcDbEntity
  8
None
370
              30
  6
Continuous
 62
               7
100
AcDbLine
 10
975.00003000000004
 20
50.999979999999994
 30
0.0
 11
1020.0000300000002
 21
50.999979999999994
 31
0.0
  0
LINE
  5
E9
100
AcDbEntity
  8
None
370
              30
  6
Continuous
 62
               7
100
AcDbLine
 10
1020.0000300000002
 20
50.999979999999994
 30
0.0
 11
1020.0000300000002
 21
62.999979999999994
 31
0.0
  0
LINE
  5
EA
100
AcDbEntity
  8
None
370
              30
  6
Continuous
 62
               7
100
AcDbLine
 10
1020.0000300000002
 20
62.999979999999994
 30
0.0
 11
1065.0000300000002
 21
62.999979999999994
 31
0.0
  0
LINE
  5
EB
100
AcDbEntity
  8
None
370
              30
  6
Continuous
 62
               7
100
AcDbLine
 10
1065.0000300000002
 20
62.999979999999994
 30
0.0
 11
1065.0000300000002
 21
74.999979999999994
 31
0.0
  0
LINE
  5
EC
100
AcDbEntity
  8
None
370
              30
  6
Continuous
 62
               7
100
AcDbLine
 10
1065.0000300000002
 20
74.999979999999994
 30
0.0
 11
1110.0000300000002
 21
74.999979999999994
 31
0.0
  0
LINE
  5
ED
100
AcDbEntity
  8
None
370
              30
  6
Continuous
 62
               7
100
AcDbLine
 10
555.00003000000004
 20
-0.0000200000000063
 30
0.0
 11
555.00003000000004
 21
-12.000020000000006
 31
0.0
  0
LINE
  5
EE
100
AcDbEntity
  8
None
370
              30
  6
Continuous
 62
               7
100
AcDbLine
 10
555.00003000000004
 20
-12.000020000000006
 30
0.0
 11
435.00003000000004
 21
-12.000020000000006
 31
0.0
  0
LINE
  5
EF
100
AcDbEntity
  8
None
370
              30
  6
Continuous
 62
               7
100
AcDbLine
 10
435.00003000000004
 20
-12.000020000000006
 30
0.0
 11
435.00003000000004
 21
-0.0000200000000063
 31
0.0
  0
LINE
  5
F0
100
AcDbEntity
  8
None
370
              30
  6
Continuous
 62
               7
100
AcDbLine
 10
486.00003000000004
 20
-132.00002000000001
 30
0.0
 11
486.00003000000004
 21
-12.000020000000006
 31
0.0
  0
LINE
  5
F1
100
AcDbEntity
  8
None
370
              30
  6
Continuous
 62
               7
100
AcDbLine
 10
498.00003000000004
 20
-132.00002000000001
 30
0.0
 11
498.00003000000004
 21
-12.000020000000006
 31
0.0
  0
LINE
  5
F2
100
AcDbEntity
  8
None
370
              30
  6
Continuous
 62
               7
100
AcDbLine
 10
434.00003000000004
 20
-12.000020000000006
 30
0.0
 11
434.00003000000004
 21
-0.0000200000000063
 31
0.0
  0
LINE
  5
F3
100
AcDbEntity
  8
None
370
              30
  6
Continuous
 62
               7
100
AcDbLine
 10
434.00003000000004
 20
-12.000020000000006
 30
0.0
 11
377.00003000000004
 21
-12.000020000000006
 31
0.0
  0
LINE
  5
F4
100
AcDbEntity
  8
None
370
              30
  6
Continuous
 62
               7
100
AcDbLine
 10
377.00003000000004
 20
-96.000020000000006
 30
0.0
 11
377.00003000000004
 21
-12.000020000000006
 31
0.0
  0
LINE
  5
F5
100
AcDbEntity
  8
None
370
              30
  6
Continuous
 62
               7
100
AcDbLine
 10
431.00003000000004
 20
-96.000020000000006
 30
0.0
 11
377.00003000000004
 21
-96.000020000000006
 31
0.0
  0
LINE
  5
F6
100
AcDbEntity
  8
None
370
              30
  6
Continuous
 62
               7
100
AcDbLine
 10
431.00003000000004
 20
-144.00002000000006
 30
0.0
 11
431.00003000000004
 21
-96.000020000000006
 31
0.0
  0
LINE
  5
F7
100
AcDbEntity
  8
None
370
              30
  6
Continuous
 62
               7
100
AcDbLine
 10
0.0000299999999811
 20
518.99998000000005
 30
0.0
 11
21.000029999999981
 21
518.99998000000005
 31
0.0
  0
LINE
  5
F8
100
AcDbEntity
  8
None
370
              30
  6
Continuous
 62
               7
100
AcDbLine
 10
21.000029999999981
 20
518.99998000000005
 30
0.0
 11
21.000029999999981
 21
494.99997999999999
 31
0.0
  0
LINE
  5
F9
100
AcDbEntity
  8
None
370
              30
  6
Continuous
 62
               7
100
AcDbLine
 10
21.000029999999981
 20
494.99997999999999
 30
0.0
 11
0.0000299999999811
 21
494.99997999999999
 31
0.0
  0
LINE
  5
FA
100
AcDbEntity
  8
None
370
              30
  6
Continuous
 62
               7
100
AcDbLine
 10
85.000029999999981
 20
239.99997999999999
 30
0.0
 11
77.000030000000038
 21
239.99997999999999
 31
0.0
  0
LINE
  5
FB
100
AcDbEntity
  8
None
370
              30
  6
Continuous
 62
               7
100
AcDbLine
 10
68.000030000000038
 20
467.99997999999999
 30
0.0
 11
68.000030000000038
 21
155.99998000000002
 31
0.0
  0
LINE
  5
FC
100
AcDbEntity
  8
None
370
              30
  6
Continuous
 62
               7
100
AcDbLine
 10
76.000029999999981
 20
155.99998000000002
 30
0.0
 11
68.000030000000038
 21
155.99998000000002
 31
0.0
  0
LINE
  5
FD
100
AcDbEntity
  8
None
370
              30
  6
Continuous
 62
               7
100
AcDbLine
 10
76.000029999999981
 20
467.99997999999999
 30
0.0
 11
76.000029999999981
 21
155.99998000000002
 31
0.0
  0
LINE
  5
FE
100
AcDbEntity
  8
None
370
              30
  6
Continuous
 62
               7
100
AcDbLine
 10
76.000029999999981
 20
467.99997999999999
 30
0.0
 11
68.000030000000038
 21
467.99997999999999
 31
0.0
  0
LINE
  5
FF
100
AcDbEntity
  8
None
370
              30
  6
Continuous
 62
               7
100
AcDbLine
 10
77.000030000000038
 20
461.99998000000005
 30
0.0
 11
77.000030000000038
 21
239.99997999999999
 31
0.0
  0
LINE
  5
100
100
AcDbEntity
  8
None
370
              30
  6
Continuous
 62
               7
100
AcDbLine
 10
85.000029999999981
 20
461.99998000000005
 30
0.0
 11
77.000030000000038
 21
461.99998000000005
 31
0.0
  0
LINE
  5
101
100
AcDbEntity
  8
None
370
              30
  6
Continuous
 62
               7
100
AcDbLine
 10
85.000029999999981
 20
461.99998000000005
 30
0.0
 11
85.000029999999981
 21
239.99997999999999
 31
0.0
  0
INSERT
  5
102
100
AcDbEntity
  8
None
 62
               7
100
AcDbBlockReference
  2
*U2
 10
477.87515000000002
 20
333.93365
 30
0.0
  0
INSERT
  5
103
100
AcDbEntity
  8
None
 62
               7
100
AcDbBlockReference
  2
*U4
 10
477.87515000000002
 20
333.93365
 30
0.0
  0
INSERT
  5
104
100
AcDbEntity
  8
None
 62
               7
100
AcDbBlockReference
  2
*U6
 10
477.87515000000002
 20
333.93365
 30
0.0
  0
INSERT
  5
105
100
AcDbEntity
  8
None
 62
               7
100
AcDbBlockReference
  2
*U8
 10
477.87515000000002
 20
333.93365
 30
0.0
  0
INSERT
  5
106
100
AcDbEntity
  8
None
 62
               7
100
AcDbBlockReference
  2
*U10
 10
477.87515000000002
 20
333.93365
 30
0.0
  0
LINE
  5
107
100
AcDbEntity
  8
None
370
              30
  6
Continuous
 62
               7
100
AcDbLine
 10
19.000029999999981
 20
494.99997999999999
 30
0.0
 11
71.000029999999981
 21
467.99997999999999
 31
0.0
  0
LINE
  5
108
100
AcDbEntity
  8
None
370
              30
  6
Continuous
 62
               7
100
AcDbLine
 10
21.000029999999981
 20
494.99997999999999
 30
0.0
 11
73.000030000000038
 21
467.99997999999999
 31
0.0
  0
LINE
  5
109
100
AcDbEntity
  8
None
370
              30
  6
Continuous
 62
               7
100
AcDbLine
 10
186.00003000000004
 20
-0.0000200000000063
 30
0.0
 11
186.00003000000004
 21
-6.0000200000000063
 31
0.0
  0
LINE
  5
10A
100
AcDbEntity
  8
None
370
              30
  6
Continuous
 62
               7
100
AcDbLine
 10
176.00003000000004
 20
-12.000020000000006
 30
0.0
 11
186.00003000000004
 21
-6.0000200000000063
 31
0.0
  0
LINE
  5
10B
100
AcDbEntity
  8
None
370
              30
  6
Continuous
 62
               7
100
AcDbLine
 10
176.00003000000004
 20
-12.000020000000006
 30
0.0
 11
176.00003000000004
 21
-36.000020000000006
 31
0.0
  0
INSERT
  5
10C
100
AcDbEntity
  8
None
 62
               7
100
AcDbBlockReference
  2
*U11
 10
477.87515000000002
 20
333.93365
 30
0.0
  0
LINE
  5
10D
100
AcDbEntity
  8
None
370
              30
  6
Continuous
 62
               7
100
AcDbLine
 10
282.00003000000004
 20
-0.0000200000000063
 30
0.0
 11
282.00003000000004
 21
-15.000020000000006
 31
0.0
  0
LINE
  5
10E
100
AcDbEntity
  8
None
370
              30
  6
Continuous
 62
               7
100
AcDbLine
 10
279.00003000000004
 20
-15.000020000000006
 30
0.0
 11
285.00003000000004
 21
-15.000020000000006
 31
0.0
  0
LINE
  5
10F
100
AcDbEntity
  8
None
370
              30
  6
Continuous
 62
               7
100
AcDbLine
 10
330.00003000000004
 20
-0.0000200000000063
 30
0.0
 11
330.00003000000004
 21
-9.0000200000000632
 31
0.0
  0
LINE
  5
110
100
AcDbEntity
  8
None
370
              30
  6
Continuous
 62
               7
100
AcDbLine
 10
330.00003000000004
 20
-9.0000200000000632
 30
0.0
 11
339.00003000000004
 21
-18.000020000000006
 31
0.0
  0
LINE
  5
111
100
AcDbEntity
  8
None
370
              30
  6
Continuous
 62
               7
100
AcDbLine
 10
339.00003000000004
 20
-18.000020000000006
 30
0.0
 11
339.00003000000004
 21
-42.000020000000006
 31
0.0
  0
LINE
  5
112
100
AcDbEntity
  8
None
370
              30
  6
Continuous
 62
               7
100
AcDbLine
 10
0.0000299999999811
 20
299.99997999999999
 30
0.0
 11
3.0000300000000379
 21
299.99997999999999
 31
0.0
  0
LINE
  5
113
100
AcDbEntity
  8
None
370
              30
  6
Continuous
 62
               7
100
AcDbLine
 10
3.0000300000000379
 20
299.99997999999999
 30
0.0
 11
3.0000300000000379
 21
314.99997999999999
 31
0.0
  0
LINE
  5
114
100
AcDbEntity
  8
None
370
              30
  6
Continuous
 62
               7
100
AcDbLine
 10
3.0000300000000379
 20
314.99997999999999
 30
0.0
 11
0.0000299999999811
 21
314.99997999999999
 31
0.0
  0
LINE
  5
115
100
AcDbEntity
  8
None
370
              30
  6
Continuous
 62
               7
100
AcDbLine
 10
3.0000300000000379
 20
311.99997999999999
 30
0.0
 11
68.000030000000038
 21
467.99997999999999
 31
0.0
  0
LINE
  5
116
100
AcDbEntity
  8
None
370
              30
  6
Continuous
 62
               7
100
AcDbLine
 10
3.0000300000000379
 20
302.87497999999999
 30
0.0
 11
68.000030000000038
 21
459.37508000000003
 31
0.0
  0
LINE
  5
117
100
AcDbEntity
  8
None
370
              15
  6
Continuous
 62
               7
100
AcDbLine
 10
393.00003000000004
 20
326.99997999999999
 30
0.0
 11
393.00003000000004
 21
686.99998000000005
 31
0.0
  0
LINE
  5
118
100
AcDbEntity
  8
None
370
              15
  6
Continuous
 62
               7
100
AcDbLine
 10
384.00003000000004
 20
566.99998000000005
 30
0.0
 11
384.00003000000004
 21
686.99998000000005
 31
0.0
  0
LINE
  5
119
100
AcDbEntity
  8
None
370
              15
  6
Continuous
 62
               7
100
AcDbLine
 10
378.00003000000004
 20
326.99997999999999
 30
0.0
 11
378.00003000000004
 21
686.99998000000005
 31
0.0
  0
LINE
  5
11A
100
AcDbEntity
  8
None
370
              15
  6
Continuous
 62
               7
100
AcDbLine
 10
117.00003000000004
 20
326.99997999999999
 30
0.0
 11
117.00003000000004
 21
686.99998000000005
 31
0.0
  0
MTEXT
  5
11B
100
AcDbEntity
  8
None
 62
               7
100
AcDbMText
 10
836.91515000000004
 20
-19.47876379310344
 30
0.0
 40
12.605793103448278
 41
0.0
 71
               1
 72
               1
  1
S.U.N.Y. at Stony Brook Staller Center for the Arts\PMain Stage          Section\PScale 1/8"=1'0"
  7
Lydian
 73
               1
 44
1.0
  0
MTEXT
  5
11C
100
AcDbEntity
  8
None
 62
               7
100
AcDbMText
 10
402.12493000000001
 20
751.24988000000008
 30
0.0
 40
6.4000000000000004
 41
69.0
 71
               1
 72
               1
  1
TEASER LINE 2
  7
Arial
 73
               1
 44
1.0
  0
MTEXT
  5
11D
100
AcDbEntity
  8
None
 62
               7
100
AcDbMText
 10
401.75003000000004
 20
733.37498000000005
 30
0.0
 40
6.4000000000000004
 41
96.874900000000011
 71
               1
 72
               1
  1
MAIN CURTAIN LINE 1
  7
Arial
 73
               1
 44
1.0
  0
MTEXT
  5
11E
100
AcDbEntity
  8
None
 62
               7
100
AcDbMText
 10
407.00003000000004
 20
719.99998000000005
 30
0.0
 40
6.4000000000000004
 41
66.124899999999997
 71
               1
 72
               1
  1
ASBESTOS FIRE CURTAIN
  7
Arial
 73
               1
 44
1.0
  0
MTEXT
  5
11F
100
AcDbEntity
  8
None
 62
               7
100
AcDbMText
 10
744.00003000000004
 20
253.99997999999999
 30
0.0
 40
6.4000000000000004
 41
0.0
 71
               1
 72
               1
  1
FIRST BOX BOOM
  7
Arial
 73
               1
 44
1.0
  0
LINE
  5
120
100
AcDbEntity
  8
None
370
               5
  6
Continuous
 62
               7
100
AcDbLine
 10
795.875
 20
253.875
 30
0.0
 11
787.875
 21
297.875
 31
0.0
  0
SOLID
  5
122
100
AcDbEntity
  8
None
370
               5
 62
               7
100
AcDbTrace
 10
735.875
 20
297.875
 30
0.0
 11
747.875
 21
301.09039030917347
 31
0.0
 12
747.875
 22
294.65960969082653
 32
0.0
 13
747.875
 23
294.65960969082653
 33
0.0
  0
LINE
  5
121
100
AcDbEntity
  8
None
370
               5
  6
Continuous
 62
               7
100
AcDbLine
 10
787.875
 20
297.875
 30
0.0
 11
735.875
 21
297.875
 31
0.0
  0
MTEXT
  5
123
100
AcDbEntity
  8
None
 62
               7
100
AcDbMText
 10
808.00003000000004
 20
391.99997999999999
 30
0.0
 40
6.4000000000000004
 41
0.0
 71
               1
 72
               1
  1
FIRST BRIDGE
  7
Arial
 73
               1
 44
1.0
  0
LINE
  5
124
100
AcDbEntity
  8
None
370
               5
  6
Continuous
 62
               7
100
AcDbLine
 10
821.50003000000004
 20
392.74997999999999
 30
0.0
 11
821.50003000000004
 21
402.99997999999999
 31
0.0
  0
MTEXT
  5
125
100
AcDbEntity
  8
None
 62
               7
100
AcDbMText
 10
502.00003000000004
 20
443.99997999999999
 30
0.0
 40
6.4000000000000004
 41
0.0
 71
               1
 72
               1
  1
CLOUDS
  7
Arial
 73
               1
 44
1.0
  0
LINE
  5
126
100
AcDbEntity
  8
None
370
               5
  6
Continuous
 62
               7
100
AcDbLine
 10
525.50003000000004
 20
435.99997999999999
 30
0.0
 11
571.38572999999997
 21
409.50788
 31
0.0
  0
SOLID
  5
128
100
AcDbEntity
  8
None
370
               5
 62
               7
100
AcDbTrace
 10
571.38572999999997
 20
395.99997999999999
 30
0.0
 11
568.17033969082649
 21
407.99997999999999
 31
0.0
 12
574.60112030917355
 22
407.99997999999999
 32
0.0
 13
574.60112030917355
 23
407.99997999999999
 33
0.0
  0
LINE
  5
127
100
AcDbEntity
  8
None
370
               5
  6
Continuous
 62
               7
100
AcDbLine
 10
571.38572999999997
 20
409.50788
 30
0.0
 11
571.38572999999997
 21
395.99997999999999
 31
0.0
  0
MTEXT
  5
129
100
AcDbEntity
  8
None
 62
               7
100
AcDbMText
 10
441.50003000000004
 20
462.49997999999999
 30
0.0
 40
6.4000000000000004
 41
0.0
 71
               1
 72
               1
  1
PROSCENIUM\PARCH
  7
Arial
 73
               1
 44
1.0
  0
LINE
  5
12A
100
AcDbEntity
  8
None
370
               5
  6
Continuous
 62
               7
100
AcDbLine
 10
467.50003000000004
 20
444.99997999999999
 30
0.0
 11
467.50003000000004
 21
421.99997999999999
 31
0.0
  0
SOLID
  5
12C
100
AcDbEntity
  8
None
370
               5
 62
               7
100
AcDbTrace
 10
438.88393000000002
 20
405.50958000000003
 30
0.0
 11
447.66853969082655
 21
414.29418969082656
 31
0.0
 12
450.88393000000002
 22
408.7249703091735
 32
0.0
 13
450.88393000000002
 23
408.7249703091735
 33
0.0
  0
LINE
  5
12B
100
AcDbEntity
  8
None
370
               5
  6
Continuous
 62
               7
100
AcDbLine
 10
467.44613000000004
 20
421.99997999999999
 30
0.0
 11
438.88393000000002
 21
405.50958000000003
 31
0.0
  0
LINE
  5
12D
100
AcDbEntity
  8
None
370
               5
  6
Continuous
 62
               7
100
AcDbLine
 10
521.00003000000004
 20
443.49997999999999
 30
0.0
 11
590.05083000000002
 21
483.36648000000002
 31
0.0
  0
SOLID
  5
12F
100
AcDbEntity
  8
None
370
               5
 62
               7
100
AcDbTrace
 10
656.70873000000006
 20
416.70857999999998
 30
0.0
 11
645.94982433398343
 21
422.92023708246052
 31
0.0
 12
650.49707291753953
 22
427.46748566601661
 32
0.0
 13
650.49707291753953
 23
427.46748566601661
 33
0.0
  0
LINE
  5
12E
100
AcDbEntity
  8
None
370
               5
  6
Continuous
 62
               7
100
AcDbLine
 10
590.05083000000002
 20
483.36648000000002
 30
0.0
 11
656.70873000000006
 21
416.70857999999998
 31
0.0
  0
LINE
  5
130
100
AcDbEntity
  8
None
370
               5
  6
Continuous
 62
               7
100
AcDbLine
 10
504.00003000000004
 20
425.99997999999999
 30
0.0
 11
484.37013000000002
 21
391.99997999999999
 31
0.0
  0
SOLID
  5
132
100
AcDbEntity
  8
None
370
               5
 62
               7
100
AcDbTrace
 10
484.37013000000002
 20
335.99997999999999
 30
0.0
 11
481.15473969082655
 21
347.99997999999999
 31
0.0
 12
487.58552030917349
 22
347.99997999999999
 32
0.0
 13
487.58552030917349
 23
347.99997999999999
 33
0.0
  0
LINE
  5
131
100
AcDbEntity
  8
None
370
               5
  6
Continuous
 62
               7
100
AcDbLine
 10
484.37013000000002
 20
391.99997999999999
 30
0.0
 11
484.37013000000002
 21
335.99997999999999
 31
0.0
  0
MTEXT
  5
133
100
AcDbEntity
  8
None
 62
               7
100
AcDbMText
 10
418.00003000000004
 20
163.99997999999999
 30
0.0
 40
6.4000000000000004
 41
0.0
 71
               1
 72
               1
  1
SMOKE POCKET
  7
Arial
 73
               1
 44
1.0
  0
LINE
  5
134
100
AcDbEntity
  8
None
370
               5
  6
Continuous
 62
               7
100
AcDbLine
 10
447.875
 20
163.875
 30
0.0
 11
474.875
 21
199.875
 31
0.0
  0
SOLID
  5
136
100
AcDbEntity
  8
None
370
               5
 62
               7
100
AcDbTrace
 10
414.875
 20
199.875
 30
0.0
 11
426.875
 21
203.09039030917347
 31
0.0
 12
426.875
 22
196.65960969082653
 32
0.0
 13
426.875
 23
196.65960969082653
 33
0.0
  0
LINE
  5
135
100
AcDbEntity
  8
None
370
               5
  6
Continuous
 62
               7
100
AcDbLine
 10
474.875
 20
199.875
 30
0.0
 11
414.875
 21
199.875
 31
0.0
  0
MTEXT
  5
137
100
AcDbEntity
  8
None
 62
               7
100
AcDbMText
 10
517.00003000000004
 20
-29.500020000000006
 30
0.0
 40
6.4000000000000004
 41
0.0
 71
               1
 72
               1
  1
STAGE\PLIFT
  7
Arial
 73
               1
 44
1.0
  0
SOLID
  5
139
100
AcDbEntity
  8
None
370
               5
 62
               7
100
AcDbTrace
 10
517.25003000000004
 20
-13.750020000000006
 30
0.0
 11
511.0383729175395
 21
-24.508925666016694
 31
0.0
 12
506.49112433398341
 22
-19.961677082460483
 32
0.0
 13
506.49112433398341
 23
-19.961677082460483
 33
0.0
  0
LINE
  5
138
100
AcDbEntity
  8
None
370
               5
  6
Continuous
 62
               7
100
AcDbLine
 10
503.50003000000004
 20
-27.500020000000006
 30
0.0
 11
517.25003000000004
 21
-13.750020000000006
 31
0.0
  0
LINE
  5
13A
100
AcDbEntity
  8
None
370
               5
  6
Continuous
 62
               7
100
AcDbLine
 10
514.50003000000004
 20
-38.500020000000006
 30
0.0
 11
503.50003000000004
 21
-27.500020000000006
 31
0.0
  0
MTEXT
  5
13B
100
AcDbEntity
  8
None
 62
               7
100
AcDbMText
 10
380.50003000000004
 20
-70.000020000000006
 30
0.0
 40
6.4000000000000004
 41
0.0
 71
               1
 72
               1
  1
ORCHESTRA PIT
  7
Arial
 73
               1
 44
1.0
  0
SOLID
  5
13D
100
AcDbEntity
  8
None
370
               5
 62
               7
100
AcDbTrace
 10
431.33733000000001
 20
-94.64652000000001
 30
0.0
 11
440.12193969082654
 21
-85.861910309173538
 31
0.0
 12
443.33733000000001
 22
-91.431129690826538
 32
0.0
 13
443.33733000000001
 23
-91.431129690826538
 33
0.0
  0
LINE
  5
13C
100
AcDbEntity
  8
None
370
               5
  6
Continuous
 62
               7
100
AcDbLine
 10
464.50003000000004
 20
-75.500020000000006
 30
0.0
 11
431.33733000000001
 21
-94.64652000000001
 31
0.0
  0
LINE
  5
13E
100
AcDbEntity
  8
None
370
               5
  6
Continuous
 62
               7
100
AcDbLine
 10
447.00003000000004
 20
-75.500020000000006
 30
0.0
 11
464.50003000000004
 21
-75.500020000000006
 31
0.0
  0
LINE
  5
13F
100
AcDbEntity
  8
None
370
               5
  6
Continuous
 62
               7
100
AcDbLine
 10
256.50003000000004
 20
-31.000020000000006
 30
0.0
 11
288.00003000000004
 21
-31.000020000000006
 31
0.0
  0
MTEXT
  5
140
100
AcDbEntity
  8
None
 62
               7
100
AcDbMText
 10
228.00003000000004
 20
-27.000020000000006
 30
0.0
 40
6.4000000000000004
 41
0.0
 71
               1
 72
               1
  1
TRAPS
  7
Arial
 73
               1
 44
1.0
  0
SOLID
  5
142
100
AcDbEntity
  8
None
370
               5
 62
               7
100
AcDbTrace
 10
262.00003000000004
 20
-5.0000200000000063
 30
0.0
 11
272.75893566601667
 21
-11.211677082460483
 31
0.0
 12
268.21168708246051
 22
-15.758925666016694
 32
0.0
 13
268.21168708246051
 23
-15.758925666016694
 33
0.0
  0
LINE
  5
141
100
AcDbEntity
  8
None
370
               5
  6
Continuous
 62
               7
100
AcDbLine
 10
288.00003000000004
 20
-31.000020000000006
 30
0.0
 11
262.00003000000004
 21
-5.0000200000000063
 31
0.0
  0
SOLID
  5
144
100
AcDbEntity
  8
None
370
               5
 62
               7
100
AcDbTrace
 10
64.000029999999981
 20
180.16578000000001
 30
0.0
 11
55.063445669061423
 21
171.53582082649578
 31
0.0
 12
51.945741359593114
 22
177.16030828759213
 32
0.0
 13
51.945741359593114
 23
177.16030828759213
 33
0.0
  0
LINE
  5
143
100
AcDbEntity
  8
None
370
               5
  6
Continuous
 62
               7
100
AcDbLine
 10
30.803830000000005
 20
160.99998000000002
 30
0.0
 11
64.000029999999981
 21
180.16578000000001
 31
0.0
  0
LINE
  5
145
100
AcDbEntity
  8
None
370
               5
  6
Continuous
 62
               7
100
AcDbLine
 10
36.000029999999981
 20
151.99997999999999
 30
0.0
 11
30.803830000000005
 21
160.99998000000002
 31
0.0
  0
MTEXT
  5
146
100
AcDbEntity
  8
None
 62
               7
100
AcDbMText
 10
6.0000299999999811
 20
152.99997999999997
 30
0.0
 40
6.4000000000000004
 41
0.0
 71
               1
 72
               1
  1
SHELL IN THE STORED \PPOSTION
  7
Arial
 73
               1
 44
1.0
  0
MTEXT
  5
147
100
AcDbEntity
  8
None
 62
               7
100
AcDbMText
 10
64.124930000000006
 20
785.34658000000002
 30
0.0
 40
6.4000000000000004
 41
43.000000000000007
 71
               1
 72
               1
  1
CYC\PLINE 39
  7
Arial
 73
               1
 44
1.0
  0
MTEXT
  5
148
100
AcDbEntity
  8
None
 62
               7
100
AcDbMText
 10
-33.999970000000019
 20
779.99998000000005
 30
0.0
 40
6.4000000000000004
 41
0.0
 71
               1
 72
               1
  1
GRID HEIGHT 62'5"
  7
Arial
 73
               1
 44
1.0
  0
LINE
  5
149
100
AcDbEntity
  8
None
370
               5
  6
Continuous
 62
               7
100
AcDbLine
 10
15.500030000000038
 20
779.99998000000005
 30
0.0
 11
40.51312999999999
 21
794.44128000000001
 31
0.0
  0
SOLID
  5
14B
100
AcDbEntity
  8
None
370
               5
 62
               7
100
AcDbTrace
 10
40.51312999999999
 20
753.49998000000005
 30
0.0
 11
37.297739690826575
 21
765.49998000000005
 31
0.0
 12
43.728520309173462
 22
765.49998000000005
 32
0.0
 13
43.728520309173462
 23
765.49998000000005
 33
0.0
  0
LINE
  5
14A
100
AcDbEntity
  8
None
370
               5
  6
Continuous
 62
               7
100
AcDbLine
 10
40.51312999999999
 20
794.44128000000001
 30
0.0
 11
40.51312999999999
 21
753.49998000000005
 31
0.0
  0
MTEXT
  5
14C
100
AcDbEntity
  8
None
 62
               7
100
AcDbMText
 10
-38.999970000000019
 20
699.99998000000005
 30
0.0
 40
6.4000000000000004
 41
0.0
 71
               1
 72
               1
  1
PIPES OUT TRIM TO 57'3"
  7
Arial
 73
               1
 44
1.0
  0
LINE
  5
14D
100
AcDbEntity
  8
None
370
               5
  6
Continuous
 62
               7
100
AcDbLine
 10
12.000030000000038
 20
700.24998000000005
 30
0.0
 11
62.269730000000038
 21
729.27328000000011
 31
0.0
  0
SOLID
  5
14F
100
AcDbEntity
  8
None
370
               5
 62
               7
100
AcDbTrace
 10
84.132130000000018
 20
691.40638000000001
 30
0.0
 11
75.502170826495842
 21
700.34296433093868
 31
0.0
 12
81.126658287592136
 22
703.46066864040688
 32
0.0
 13
81.126658287592136
 23
703.46066864040688
 33
0.0
  0
LINE
  5
14E
100
AcDbEntity
  8
None
370
               5
  6
Continuous
 62
               7
100
AcDbLine
 10
62.269730000000038
 20
729.27328000000011
 30
0.0
 11
84.132130000000018
 21
691.40638000000001
 31
0.0
  0
LINE
  5
150
100
AcDbEntity
  8
None
370
               5
  6
Continuous
 62
               7
100
AcDbLine
 10
77.124930000000006
 20
765.00008000000003
 30
0.0
 11
103.68303000000003
 21
719.00008000000003
 31
0.0
  0
SOLID
  5
152
100
AcDbEntity
  8
None
370
               5
 62
               7
100
AcDbTrace
 10
98.124930000000006
 20
692.00008000000003
 30
0.0
 11
97.474743973472357
 21
704.40636844462506
 31
0.0
 12
103.76499660615389
 22
703.06933397298644
 32
0.0
 13
103.76499660615389
 23
703.06933397298644
 33
0.0
  0
LINE
  5
151
100
AcDbEntity
  8
None
370
               5
  6
Continuous
 62
               7
100
AcDbLine
 10
103.68303000000003
 20
719.00008000000003
 30
0.0
 11
98.124930000000006
 21
692.00008000000003
 31
0.0
  0
MTEXT
  5
153
100
AcDbEntity
  8
None
 62
               7
100
AcDbMText
 10
111.52303000000001
 20
758.29408000000001
 30
0.0
 40
6.4000000000000004
 41
68.351900000000001
 71
               1
 72
               1
  1
TRAVELLER\PLINE 36
  7
Arial
 73
               1
 44
1.0
  0
LINE
  5
154
100
AcDbEntity
  8
None
370
               5
  6
Continuous
 62
               7
100
AcDbLine
 10
121.875
 20
739.875
 30
0.0
 11
128.22586000000001
 21
728.875
 31
0.0
  0
SOLID
  5
156
100
AcDbEntity
  8
None
370
               5
 62
               7
100
AcDbTrace
 10
116.875
 20
691.875
 30
0.0
 11
117.52518602652765
 21
704.28128844462503
 31
0.0
 12
123.6412218384711
 22
702.29406794645865
 32
0.0
 13
123.6412218384711
 23
702.29406794645865
 33
0.0
  0
LINE
  5
155
100
AcDbEntity
  8
None
370
               5
  6
Continuous
 62
               7
100
AcDbLine
 10
128.22586000000001
 20
728.875
 30
0.0
 11
116.875
 21
691.875
 31
0.0
  0
MTEXT
  5
157
100
AcDbEntity
  8
None
 62
               7
100
AcDbMText
 10
139.89853000000005
 20
724.54618000000005
 30
0.0
 40
6.4000000000000004
 41
27.887700000000002
 71
               1
 72
               1
  1
LINE C\P
  7
Arial
 11
0.999657324980673
 21
0.0261769481125151
 31
0.0
 73
               1
 44
1.0
  0
LINE
  5
158
100
AcDbEntity
  8
None
370
               5
  6
Continuous
 62
               7
100
AcDbLine
 10
152.37493000000006
 20
716.75008000000003
 30
0.0
 11
164.87493000000001
 21
704.25008000000003
 31
0.0
  0
SOLID
  5
15A
100
AcDbEntity
  8
None
370
               5
 62
               7
100
AcDbTrace
 10
155.67553000000004
 20
688.31618000000003
 30
0.0
 11
158.89092030917351
 21
700.31618000000003
 31
0.0
 12
164.46013969082651
 22
697.10078969082656
 32
0.0
 13
164.46013969082651
 23
697.10078969082656
 33
0.0
  0
LINE
  5
159
100
AcDbEntity
  8
None
370
               5
  6
Continuous
 62
               7
100
AcDbLine
 10
164.87493000000001
 20
704.25008000000003
 30
0.0
 11
155.67553000000004
 21
688.31618000000003
 31
0.0
  0
MTEXT
  5
15B
100
AcDbEntity
  8
None
 62
               7
100
AcDbMText
 10
333.13033000000001
 20
705.99998000000005
 30
0.0
 40
6.4000000000000004
 41
31.869700000000002
 71
               1
 72
               1
  1
LINE B
  7
Arial
 73
               1
 44
1.0
  0
MTEXT
  5
15C
100
AcDbEntity
  8
None
 62
               7
100
AcDbMText
 10
306.12493000000001
 20
721.62498000000005
 30
0.0
 40
6.4000000000000004
 41
55.0
 71
               1
 72
               1
  1
TORM LINE 3
  7
Arial
 73
               1
 44
1.0
  0
LINE
  5
15D
100
AcDbEntity
  8
None
370
               5
  6
Continuous
 62
               7
100
AcDbLine
 10
358.12493000000001
 20
718.00008000000003
 30
0.0
 11
379.12493000000001
 21
718.00008000000003
 31
0.0
  0
SOLID
  5
15F
100
AcDbEntity
  8
None
370
               5
 62
               7
100
AcDbTrace
 10
379.12493000000001
 20
693.00008000000003
 30
0.0
 11
375.90953969082653
 21
705.00008000000003
 31
0.0
 12
382.34032030917348
 22
705.00008000000003
 32
0.0
 13
382.34032030917348
 23
705.00008000000003
 33
0.0
  0
LINE
  5
15E
100
AcDbEntity
  8
None
370
               5
  6
Continuous
 62
               7
100
AcDbLine
 10
379.12493000000001
 20
718.00008000000003
 30
0.0
 11
379.12493000000001
 21
693.00008000000003
 31
0.0
  0
LINE
  5
160
100
AcDbEntity
  8
None
370
               5
  6
Continuous
 62
               7
100
AcDbLine
 10
400.12493000000001
 20
727.00008000000003
 30
0.0
 11
393.12493000000001
 21
724.00008000000003
 31
0.0
  0
SOLID
  5
162
100
AcDbEntity
  8
None
370
               5
 62
               7
100
AcDbTrace
 10
393.12493000000001
 20
693.00008000000003
 30
0.0
 11
389.90953969082653
 21
705.00008000000003
 31
0.0
 12
396.34032030917348
 22
705.00008000000003
 32
0.0
 13
396.34032030917348
 23
705.00008000000003
 33
0.0
  0
LINE
  5
161
100
AcDbEntity
  8
None
370
               5
  6
Continuous
 62
               7
100
AcDbLine
 10
393.12493000000001
 20
724.00008000000003
 30
0.0
 11
393.12493000000001
 21
693.00008000000003
 31
0.0
  0
LINE
  5
163
100
AcDbEntity
  8
None
370
               5
  6
Continuous
 62
               7
100
AcDbLine
 10
405.87493000000001
 20
715.50008000000003
 30
0.0
 11
400.87493000000001
 21
715.50008000000003
 31
0.0
  0
LINE
  5
164
100
AcDbEntity
  8
None
370
               5
  6
Continuous
 62
               7
100
AcDbLine
 10
354.375
 20
704.375
 30
0.0
 11
366.375
 21
711.30321000000004
 31
0.0
  0
SOLID
  5
166
100
AcDbEntity
  8
None
370
               5
 62
               7
100
AcDbTrace
 10
369.875
 20
691.875
 30
0.0
 11
364.6246805625625
 21
703.13434636847069
 31
0.0
 12
370.9577631734312
 22
704.25103970382236
 32
0.0
 13
370.9577631734312
 23
704.25103970382236
 33
0.0
  0
LINE
  5
165
100
AcDbEntity
  8
None
370
               5
  6
Continuous
 62
               7
100
AcDbLine
 10
366.375
 20
711.30321000000004
 30
0.0
 11
369.875
 21
691.875
 31
0.0
  0
SOLID
  5
168
100
AcDbEntity
  8
None
370
               5
 62
               7
100
AcDbTrace
 10
386.12493000000001
 20
692.00008000000003
 30
0.0
 11
382.90953969082653
 21
704.00008000000003
 31
0.0
 12
389.34032030917353
 22
704.00008000000003
 32
0.0
 13
389.34032030917353
 23
704.00008000000003
 33
0.0
  0
LINE
  5
167
100
AcDbEntity
  8
None
370
               5
  6
Continuous
 62
               7
100
AcDbLine
 10
386.12493000000001
 20
737.91717999999992
 30
0.0
 11
386.12493000000001
 21
692.00008000000003
 31
0.0
  0
LINE
  5
169
100
AcDbEntity
  8
None
370
               5
  6
Continuous
 62
               7
100
AcDbLine
 10
400.12493000000001
 20
746.00008000000003
 30
0.0
 11
386.12493000000001
 21
737.91717999999992
 31
0.0
  0
SOLID
  5
16B
100
AcDbEntity
  8
None
370
               5
 62
               7
100
AcDbTrace
 10
405.12493000000001
 20
688.75008000000003
 30
0.0
 11
400.07191290068403
 21
700.09934222423055
 31
0.0
 12
406.42351993835047
 22
701.10533795005279
 32
0.0
 13
406.42351993835047
 23
701.10533795005279
 33
0.0
  0
LINE
  5
16A
100
AcDbEntity
  8
None
370
               5
  6
Continuous
 62
               7
100
AcDbLine
 10
400.87493000000001
 20
715.50008000000003
 30
0.0
 11
405.12493000000001
 21
688.75008000000003
 31
0.0
  0
SOLID
  5
16D
100
AcDbEntity
  8
None
370
               5
 62
               7
100
AcDbTrace
 10
792.00003000000004
 20
385.96818000000002
 30
0.0
 11
800.93661433093871
 21
394.59813917350419
 31
0.0
 12
804.05431864040702
 22
388.9736517124079
 32
0.0
 13
804.05431864040702
 23
388.9736517124079
 33
0.0
  0
LINE
  5
16C
100
AcDbEntity
  8
None
370
               5
  6
Continuous
 62
               7
100
AcDbLine
 10
821.50003000000004
 20
402.99997999999999
 30
0.0
 11
792.00003000000004
 21
385.96818000000002
 31
0.0
  0
MTEXT
  5
16E
100
AcDbEntity
  8
None
 62
               7
100
AcDbMText
 10
1082.0000299999999
 20
431.99997999999999
 30
0.0
 40
6.4000000000000004
 41
0.0
 71
               1
 72
               1
  1
SECOND BRIDGE
  7
Arial
 73
               1
 44
1.0
  0
LINE
  5
16F
100
AcDbEntity
  8
None
370
               5
  6
Continuous
 62
               7
100
AcDbLine
 10
1090.5000299999999
 20
431.74997999999999
 30
0.0
 11
1079.0000300000002
 21
443.24997999999999
 31
0.0
  0
SOLID
  5
171
100
AcDbEntity
  8
None
370
               5
 62
               7
100
AcDbTrace
 10
1059.29493
 20
431.87317999999999
 30
0.0
 11
1068.0795396908266
 21
440.65778969082652
 31
0.0
 12
1071.29493
 22
435.08857030917346
 32
0.0
 13
1071.29493
 23
435.08857030917346
 33
0.0
  0
LINE
  5
170
100
AcDbEntity
  8
None
370
               5
  6
Continuous
 62
               7
100
AcDbLine
 10
1079.0000300000002
 20
443.24997999999999
 30
0.0
 11
1059.29493
 21
431.87317999999999
 31
0.0
  0
MTEXT
  5
172
100
AcDbEntity
  8
None
 62
               7
100
AcDbMText
 10
1004.0000300000002
 20
313.99997999999999
 30
0.0
 40
6.4000000000000004
 41
0.0
 71
               1
 72
               1
  1
SECOND BOX BOOM
  7
Arial
 73
               1
 44
1.0
  0
LINE
  5
173
100
AcDbEntity
  8
None
370
               5
  6
Continuous
 62
               7
100
AcDbLine
 10
1055.875
 20
311.875
 30
0.0
 11
1036.2450800000001
 21
345.875
 31
0.0
  0
SOLID
  5
175
100
AcDbEntity
  8
None
370
               5
 62
               7
100
AcDbTrace
 10
982.875
 20
345.875
 30
0.0
 11
994.875
 21
349.09039030917347
 31
0.0
 12
994.875
 22
342.65960969082653
 32
0.0
 13
994.875
 23
342.65960969082653
 33
0.0
  0
LINE
  5
174
100
AcDbEntity
  8
None
370
               5
  6
Continuous
 62
               7
100
AcDbLine
 10
1036.2450800000001
 20
345.875
 30
0.0
 11
982.875
 21
345.875
 31
0.0
  0
ENDSEC
  0
SECTION
  2
OBJECTS
  0
DICTIONARY
  5
19
100
AcDbDictionary
280
               0
281
               1
  3
ACAD_GROUP
350
1A
  3
ACAD_MLINESTYLE
350
1B
  3
ACAD_LAYOUT
350
1E
  3
ACAD_PLOTSETTINGS
350
22
  3
ACAD_PLOTSTYLENAME
350
1F
  0
DICTIONARY
  5
1A
102
{ACAD_REACTORS
330
19
102
}
100
AcDbDictionary
280
               0
281
               1
  0
DICTIONARY
  5
1B
102
{ACAD_REACTORS
330
19
102
}
100
AcDbDictionary
280
               0
281
               1
  3
Standard
350
1C
  0
MLINESTYLE
  5
1C
102
{ACAD_REACTORS
330
1B
102
}
100
AcDbMlineStyle
  2
Standard
 70
               0
  3

 62
               0
 51
90.0
 52
90.0
 71
               2
 49
0.5
 62
             256
  6
BYLAYER
 49
-0.5
 62
             256
  6
BYLAYER
  0
ACDBDICTIONARYWDFLT
  5
1F
102
{ACAD_REACTORS
330
19
102
}
100
AcDbDictionary
281
               1
  3
Normal
350
1D
100
AcDbDictionaryWithDefault
340
1D
  0
ACDBPLACEHOLDER
  5
1D
102
{ACAD_REACTORS
330
1F
102
}
  0
LAYOUT
  5
20
102
{ACAD_REACTORS
330
1E
102
}
100
AcDbPlotSettings
  1

  2

  4

  6

 40
0.0
 41
0.0
 42
0.0
 43
0.0
 44
0.0
 45
0.0
 46
0.0
 47
0.0
 48
0.0
 49
0.0
140
0.0
141
0.0
142
1.0
143
1.0
 70
            1024
 72
               0
 73
               0
 74
               0
  7

 75
               0
147
1.0
148
0.0
149
0.0
100
AcDbLayout
  1
Model
 70
               0
 71
               0
 10
0.0
 20
0.0
 11
0.0
 21
0.0
 12
0.0
 22
0.0
 32
0.0
 14
0.0
 24
0.0
 34
0.0
 15
0.0
 25
0.0
 35
0.0
146
0.0
 13
0.0
 23
0.0
 33
0.0
 16
0.0
 26
0.0
 36
0.0
 17
0.0
 27
0.0
 37
0.0
 76
               0
330
A
331
0
345
0
346
0
  0
LAYOUT
  5
21
102
{ACAD_REACTORS
330
1E
102
}
100
AcDbPlotSettings
  1

  2

  4

  6

 40
0.0
 41
0.0
 42
0.0
 43
0.0
 44
0.0
 45
0.0
 46
0.0
 47
0.0
 48
0.0
 49
0.0
140
0.0
141
0.0
142
1.0
143
1.0
 70
               0
 72
               0
 73
               0
 74
               0
  7

 75
               0
147
1.0
148
0.0
149
0.0
100
AcDbLayout
  1
Layout1
 70
               0
 71
               0
 10
0.0
 20
0.0
 11
0.0
 21
0.0
 12
0.0
 22
0.0
 32
0.0
 14
0.0
 24
0.0
 34
0.0
 15
0.0
 25
0.0
 35
0.0
146
0.0
 13
0.0
 23
0.0
 33
0.0
 16
0.0
 26
0.0
 36
0.0
 17
0.0
 27
0.0
 37
0.0
 76
               0
330
B
331
0
345
0
346
0
  0
DICTIONARY
  5
1E
102
{ACAD_REACTORS
330
19
102
}
100
AcDbDictionary
280
               0
281
               1
  3
Layout1
350
21
  3
Model
350
20
  0
DICTIONARY
  5
22
102
{ACAD_REACTORS
330
19
102
}
100
AcDbDictionary
280
               0
281
               1
  0
ENDSEC
  0
EOF
