  0
SECTION
  2
HEADER
  9
$ACADVER
  1
AC1015
  9
$ACADMAINTVER
 70
               6
  9
$DWGCODEPAGE
  3
ANSI_1252
  9
$INSBASE
 10
0.0
 20
0.0
 30
0.0
  9
$EXTMIN
 10
-556.30315250000001
 20
-309.53443971644805
 30
0.0
  9
$EXTMAX
 10
554.95708709999997
 20
437.796018
 30
0.0
  9
$LIMMIN
 10
0.0
 20
0.0
  9
$LIMMAX
 10
0.0
 20
0.0
  9
$ORTHOMODE
 70
               0
  9
$REGENMODE
 70
               1
  9
$FILLMODE
 70
               1
  9
$QTEXTMODE
 70
               0
  9
$MIRRTEXT
 70
               1
  9
$LTSCALE
 40
19.199999999999999
  9
$ATTMODE
 70
               1
  9
$TEXTSIZE
 40
0.2
  9
$TRACEWID
 40
1.0
  9
$TEXTSTYLE
  7
Standard
  9
$CLAYER
  8
0
  9
$CELTYPE
  6
Continuous
  9
$CECOLOR
 62
             256
  9
$CELTSCALE
 40
1.0
  9
$DISPSILH
 70
               0
  9
$DIMSCALE
 40
1.0
  9
$DIMASZ
 40
0.18
  9
$DIMEXO
 40
0.0625
  9
$DIMDLI
 40
0.38
  9
$DIMRND
 40
0.0
  9
$DIMDLE
 40
0.0
  9
$DIMEXE
 40
0.18
  9
$DIMTP
 40
0.0
  9
$DIMTM
 40
0.0
  9
$DIMTXT
 40
0.18
  9
$DIMCEN
 40
0.09
  9
$DIMTSZ
 40
0.0
  9
$DIMTOL
 70
               0
  9
$DIMLIM
 70
               0
  9
$DIMTIH
 70
               1
  9
$DIMTOH
 70
               1
  9
$DIMSE1
 70
               0
  9
$DIMSE2
 70
               0
  9
$DIMTAD
 70
               0
  9
$DIMZIN
 70
               0
  9
$DIMBLK
  1

  9
$DIMASO
 70
               1
  9
$DIMSHO
 70
               1
  9
$DIMPOST
  1

  9
$DIMAPOST
  1

  9
$DIMALT
 70
               0
  9
$DIMALTD
 70
               2
  9
$DIMALTF
 40
25.399999999999999
  9
$DIMLFAC
 40
1.0
  9
$DIMTOFL
 70
               0
  9
$DIMTVP
 40
0.0
  9
$DIMTIX
 70
               0
  9
$DIMSOXD
 70
               0
  9
$DIMSAH
 70
               0
  9
$DIMBLK1
  1

  9
$DIMBLK2
  1

  9
$DIMSTYLE
  2
Standard
  9
$DIMCLRD
 70
               0
  9
$DIMCLRE
 70
               0
  9
$DIMCLRT
 70
               0
  9
$DIMTFAC
 40
1.0
  9
$DIMGAP
 40
0.09
  9
$DIMJUST
 70
               0
  9
$DIMSD1
 70
               0
  9
$DIMSD2
 70
               0
  9
$DIMTOLJ
 70
               1
  9
$DIMTZIN
 70
               0
  9
$DIMALTZ
 70
               0
  9
$DIMALTTZ
 70
               0
  9
$DIMUPT
 70
               0
  9
$DIMDEC
 70
               4
  9
$DIMTDEC
 70
               4
  9
$DIMALTU
 70
               2
  9
$DIMALTTD
 70
               2
  9
$DIMTXSTY
  7
Standard
  9
$DIMAUNIT
 70
               0
  9
$DIMADEC
 70
               0
  9
$DIMALTRND
 40
0.0
  9
$DIMAZIN
 70
               0
  9
$DIMDSEP
 70
               0
  9
$DIMATFIT
 70
               3
  9
$DIMFRAC
 70
               0
  9
$DIMLDRBLK
  1

  9
$DIMLUNIT
 70
               4
  9
$DIMLWD
 70
               0
  9
$DIMLWE
 70
               0
  9
$DIMTMOVE
 70
               0
  9
$LUNITS
 70
               4
  9
$LUPREC
 70
               4
  9
$SKETCHINC
 40
0.1
  9
$FILLETRAD
 40
0.0
  9
$AUNITS
 70
               0
  9
$AUPREC
 70
               0
  9
$MENU
  1
acad
  9
$ELEVATION
 40
0.0
  9
$PELEVATION
 40
0.0
  9
$THICKNESS
 40
0.0
  9
$LIMCHECK
 70
               0
  9
$CHAMFERA
 40
0.0
  9
$CHAMFERB
 40
0.0
  9
$CHAMFERC
 40
0.0
  9
$CHAMFERD
 40
0.0
  9
$SKPOLY
 70
               0
  9
$TDCREATE
 40
2452581.849467593
  9
$TDUCREATE
 40
0.000000000
  9
$TDUPDATE
 40
2452581.849467593
  9
$TDUUPDATE
 40
0.000000000
  9
$TDINDWG
 40
0.0000000000
  9
$TDUSRTIMER
 40
0.0000000000
  9
$USRTIMER
 70
               1
  9
$ANGBASE
 50
0.0
  9
$ANGDIR
 70
               0
  9
$PDMODE
 70
               1
  9
$PDSIZE
 40
-2.0
  9
$PLINEWID
 40
0.0
  9
$SPLFRAME
 70
               0
  9
$SPLINETYPE
 70
               6
  9
$SPLINESEGS
 70
               8
  9
$HANDSEED
  5
305
  9
$SURFTAB1
 70
               6
  9
$SURFTAB2
 70
               6
  9
$SURFTYPE
 70
               6
  9
$SURFU
 70
               6
  9
$SURFV
 70
               6
  9
$UCSBASE
  2

  9
$UCSNAME
  2

  9
$UCSORG
 10
0.0
 20
0.0
 30
0.0
  9
$UCSXDIR
 10
1.0
 20
0.0
 30
0.0
  9
$UCSYDIR
 10
0.0
 20
1.0
 30
0.0
  9
$UCSORTHOREF
  2

  9
$UCSORTHOVIEW
 70
               0
  9
$UCSORGTOP
 10
0.0
 20
0.0
 30
0.0
  9
$UCSORGBOTTOM
 10
0.0
 20
0.0
 30
0.0
  9
$UCSORGLEFT
 10
0.0
 20
0.0
 30
0.0
  9
$UCSORGRIGHT
 10
0.0
 20
0.0
 30
0.0
  9
$UCSORGFRONT
 10
0.0
 20
0.0
 30
0.0
  9
$UCSORGBACK
 10
0.0
 20
0.0
 30
0.0
  9
$PUCSBASE
  2

  9
$PUCSNAME
  2

  9
$PUCSORG
 10
0.0
 20
0.0
 30
0.0
  9
$PUCSXDIR
 10
1.0
 20
0.0
 30
0.0
  9
$PUCSYDIR
 10
0.0
 20
1.0
 30
0.0
  9
$PUCSORTHOREF
  2

  9
$PUCSORTHOVIEW
 70
               0
  9
$PUCSORGTOP
 10
0.0
 20
0.0
 30
0.0
  9
$PUCSORGBOTTOM
 10
0.0
 20
0.0
 30
0.0
  9
$PUCSORGLEFT
 10
0.0
 20
0.0
 30
0.0
  9
$PUCSORGRIGHT
 10
0.0
 20
0.0
 30
0.0
  9
$PUCSORGFRONT
 10
0.0
 20
0.0
 30
0.0
  9
$PUCSORGBACK
 10
0.0
 20
0.0
 30
0.0
  9
$USERI1
 70
               0
  9
$USERI2
 70
               0
  9
$USERI3
 70
               0
  9
$USERI4
 70
               0
  9
$USERI5
 70
               0
  9
$USERR1
 40
0.0
  9
$USERR2
 40
0.0
  9
$USERR3
 40
0.0
  9
$USERR4
 40
0.0
  9
$USERR5
 40
0.0
  9
$WORLDVIEW
 70
               1
  9
$SHADEDGE
 70
               3
  9
$SHADEDIF
 70
              70
  9
$TILEMODE
 70
               1
  9
$MAXACTVP
 70
              16
  9
$PINSBASE
 10
0.0
 20
0.0
 30
0.0
  9
$PLIMCHECK
 70
               0
  9
$PEXTMIN
 10
1.0000000000000000E+20
 20
1.0000000000000000E+20
 30
1.0000000000000000E+20
  9
$PEXTMAX
 10
-1.0000000000000000E+20
 20
-1.0000000000000000E+20
 30
-1.0000000000000000E+20
  9
$PLIMMIN
 10
0.0
 20
0.0
  9
$PLIMMAX
 10
12.0
 20
9.0
  9
$UNITMODE
 70
               0
  9
$VISRETAIN
 70
               0
  9
$PLINEGEN
 70
               1
  9
$PSLTSCALE
 70
               0
  9
$TREEDEPTH
 70
            3020
  9
$CMLSTYLE
  2
Standard
  9
$CMLJUST
 70
               0
  9
$CMLSCALE
 40
1.0
  9
$PROXYGRAPHICS
 70
               0
  9
$MEASUREMENT
 70
               0
  9
$CELWEIGHT
370
               0
  9
$ENDCAPS
280
               0
  9
$JOINSTYLE
280
               0
  9
$LWDISPLAY
290
               1
  9
$INSUNITS
 70
               1
  9
$HYPERLINKBASE
  1

  9
$XEDIT
290
               1
  9
$CEPSNTYPE
380
               0
  9
$PSTYLEMODE
290
               1
  9
$FINGERPRINTGUID
  2

  9
$VERSIONGUID
  2

  9
$EXTNAMES
290
               1
  9
$PSVPSCALE
 40
0.0
  0
ENDSEC
  0
SECTION
  2
CLASSES
  0
CLASS
  1
LWPOLYLINE
  2
AcDbPolyline
  3
AutoCAD 2000
 90
    32768
280
               0
281
               1
  0
CLASS
  1
IMAGE
  2
AcDbRasterImage
  3
ISM
 90
    32895
280
               0
281
               1
  0
CLASS
  1
OLE2FRAME
  2
AcDbOle2Frame
  3
AutoCAD 2000
 90
    32768
280
               0
281
               1
  0
CLASS
  1
HATCH
  2
AcDbHatch
  3
AutoCAD 2000
 90
    32768
280
               0
281
               1
  0
CLASS
  1
DICTIONARYVAR
  2
AcDbDictionaryVar
  3
AutoCAD 2000
 90
    32768
280
               0
281
               0
  0
CLASS
  1
RASTERVARIABLES
  2
AcDbRasterVariables
  3
ISM
 90
    32768
280
               0
281
               0
  0
CLASS
  1
IMAGEDEF
  2
AcDbRasterImageDef
  3
ISM
 90
    32768
280
               0
281
               0
  0
CLASS
  1
IMAGEDEF_REACTOR
  2
AcDbRasterImageDefReactor
  3
ISM
 90
    32769
280
               0
281
               0
  0
CLASS
  1
IDBUFFER
  2
AcDbIdBuffer
  3
AutoCAD 2000
 90
    32768
280
               0
281
               0
  0
CLASS
  1
SPATIAL_FILTER
  2
AcDbSpatialFilter
  3
AutoCAD 2000
 90
    32768
280
               0
281
               0
  0
CLASS
  1
XRECORD
  2
AcDbXrecord
  3
AutoCAD 2000
 90
    32768
280
               0
281
               0
  0
CLASS
  1
SORTENTSTABLE
  2
AcDbSortentsTable
  3
AutoCAD 2000
 90
    32768
280
               0
281
               0
  0
CLASS
  1
LAYER_INDEX
  2
AcDbLayerIndex
  3
AutoCAD 2000
 90
    32768
280
               0
281
               0
  0
CLASS
  1
SPATIAL_INDEX
  2
AcDbSpatialIndex
  3
AutoCAD 2000
 90
    32768
280
               0
281
               0
  0
CLASS
  1
OBJECT_PTR
  2
CAseDLPNTableRecord
  3
"ASE-LPNTableRecord"
 90
    32769
280
               0
281
               0
  0
CLASS
  1
LAYOUT
  2
AcDbLayout
  3
AutoCAD 2000
 90
        0
280
               0
281
               0
  0
CLASS
  1
PLOTSETTINGS
  2
AcDbPlotSettings
  3
AutoCAD 2000
 90
    32768
280
               0
281
               0
  0
CLASS
  1
ACDBDICTIONARYWDFLT
  2
AcDbDictionaryWithDefault
  3
AutoCAD 2000
 90
        0
280
               0
281
               0
  0
CLASS
  1
ACDBPLACEHOLDER
  2
AcDbPlaceHolder
  3
AutoCAD 2000
 90
        0
280
               0
281
               0
  0
ENDSEC
  0
SECTION
  2
TABLES
  0
TABLE
  2
VPORT
  5
7
100
AcDbSymbolTable
 70
               1
  0
VPORT
  5
15
100
AcDbSymbolTableRecord
100
AcDbViewportTableRecord
  2
*ACTIVE
 70
               0
 10
0.0
 20
0.0
 11
1.0
 21
1.0
 12
-0.6730327000000216
 22
64.130789141776006
 13
0.0
 23
0.0
 14
1.0
 24
1.0
 15
0.0
 25
0.0
 16
0.0
 26
0.0
 36
1.0
 17
0.0
 27
0.0
 37
0.0
 40
747.33045771644811
 41
0.688564
 42
50.0
 43
0.0
 44
0.0
 50
0.0
 51
0.0
 71
               0
 72
             100
 73
               1
 74
               1
 75
               0
 76
               0
 77
               0
 78
               0
281
               0
 65
               0
110
0.0
120
0.0
130
0.0
111
1.0
121
0.0
131
0.0
112
0.0
122
1.0
132
0.0
345
0
346
0
 79
               0
146
0.0
  0
ENDTAB
  0
TABLE
  2
LTYPE
  5
4
100
AcDbSymbolTable
 70
              13
  0
LTYPE
  5
11
100
AcDbSymbolTableRecord
100
AcDbLinetypeTableRecord
  2
ByBlock
 70
              64
  3

 72
              65
 73
               0
 40
0.0
  0
LTYPE
  5
12
100
AcDbSymbolTableRecord
100
AcDbLinetypeTableRecord
  2
ByLayer
 70
              64
  3

 72
              65
 73
               0
 40
0.0
  0
LTYPE
  5
13
100
AcDbSymbolTableRecord
100
AcDbLinetypeTableRecord
  2
Continuous
 70
              64
  3
Solid line
 72
              65
 73
               0
 40
0.0
  0
LTYPE
  5
26
100
AcDbSymbolTableRecord
100
AcDbLinetypeTableRecord
  2
STYLE_01
 70
               0
  3

 72
              65
 73
               4
 40
0.072174072265625
 49
0.045166015625
 74
               0
 49
-0.009002685546875
 74
               0
 49
0.009002685546875
 74
               0
 49
-0.009002685546875
 74
               0
  0
LTYPE
  5
27
100
AcDbSymbolTableRecord
100
AcDbLinetypeTableRecord
  2
STYLE_02
 70
               0
  3

 72
              65
 73
               2
 40
0.694427490234375
 49
0.4860687255859375
 74
               0
 49
-0.2083587646484375
 74
               0
  0
LTYPE
  5
28
100
AcDbSymbolTableRecord
100
AcDbLinetypeTableRecord
  2
STYLE_03
 70
               0
  3

 72
              65
 73
               2
 40
1.25
 49
1.0416412353515625
 74
               0
 49
-0.2083587646484375
 74
               0
  0
LTYPE
  5
29
100
AcDbSymbolTableRecord
100
AcDbLinetypeTableRecord
  2
STYLE_04
 70
               0
  3

 72
              65
 73
               2
 40
1.5277099609375
 49
1.319427490234375
 74
               0
 49
-0.208282470703125
 74
               0
  0
LTYPE
  5
2A
100
AcDbSymbolTableRecord
100
AcDbLinetypeTableRecord
  2
STYLE_05
 70
               0
  3

 72
              65
 73
               2
 40
0.208282470703125
 49
0.069427490234375
 74
               0
 49
-0.13885498046875
 74
               0
  0
LTYPE
  5
2B
100
AcDbSymbolTableRecord
100
AcDbLinetypeTableRecord
  2
STYLE_06
 70
               0
  3

 72
              65
 73
               4
 40
1.0416412353515625
 49
0.625
 74
               0
 49
-0.208282470703125
 74
               0
 49
0.069427490234375
 74
               0
 49
-0.1389312744140625
 74
               0
  0
LTYPE
  5
2C
100
AcDbSymbolTableRecord
100
AcDbLinetypeTableRecord
  2
STYLE_07
 70
               0
  3

 72
              65
 73
               6
 40
1.875
 49
0.625
 74
               0
 49
-0.208282470703125
 74
               0
 49
0.625
 74
               0
 49
-0.2083587646484375
 74
               0
 49
0.069427490234375
 74
               0
 49
-0.1389312744140625
 74
               0
  0
LTYPE
  5
2D
100
AcDbSymbolTableRecord
100
AcDbLinetypeTableRecord
  2
STYLE_08
 70
               0
  3

 72
              65
 73
               6
 40
1.25
 49
0.625
 74
               0
 49
-0.208282470703125
 74
               0
 49
0.069427490234375
 74
               0
 49
-0.1389312744140625
 74
               0
 49
0.069427490234375
 74
               0
 49
-0.1389312744140625
 74
               0
  0
LTYPE
  5
2E
100
AcDbSymbolTableRecord
100
AcDbLinetypeTableRecord
  2
STYLE_09
 70
               0
  3

 72
              65
 73
               4
 40
5.0
 49
3.75
 74
               0
 49
-0.2777862548828125
 74
               0
 49
0.694427490234375
 74
               0
 49
-0.2777862548828125
 74
               0
  0
LTYPE
  5
2F
100
AcDbSymbolTableRecord
100
AcDbLinetypeTableRecord
  2
STYLE_10
 70
               0
  3

 72
              65
 73
               6
 40
5.9375
 49
3.75
 74
               0
 49
-0.2777862548828125
 74
               0
 49
0.694427490234375
 74
               0
 49
-0.2777862548828125
 74
               0
 49
0.625
 74
               0
 49
-0.3125
 74
               0
  0
ENDTAB
  0
TABLE
  2
LAYER
  5
2
100
AcDbSymbolTable
 70
               6
  0
LAYER
  5
14
100
AcDbSymbolTableRecord
100
AcDbLayerTableRecord
  2
0
 70
               0
 62
              13
  6
Continuous
290
               1
370
              15
390
1D
  0
LAYER
  5
30
100
AcDbSymbolTableRecord
100
AcDbLayerTableRecord
  2
None
 70
               0
 62
               7
  6
Continuous
290
               1
370
               5
390
1F
  0
LAYER
  5
31
100
AcDbSymbolTableRecord
100
AcDbLayerTableRecord
  2
Dimension
 70
               0
 62
               7
  6
Continuous
290
               1
370
               5
390
1F
  0
LAYER
  5
32
100
AcDbSymbolTableRecord
100
AcDbLayerTableRecord
  2
3
 70
               0
 62
               1
  6
Continuous
290
               1
370
              15
390
1F
  0
LAYER
  5
33
100
AcDbSymbolTableRecord
100
AcDbLayerTableRecord
  2
2
 70
               0
 62
               1
  6
Continuous
290
               1
370
              15
390
1F
  0
LAYER
  5
34
100
AcDbSymbolTableRecord
100
AcDbLayerTableRecord
  2
1
 70
               0
 62
               4
  6
Continuous
290
               1
370
              15
390
1F
  0
ENDTAB
  0
TABLE
  2
STYLE
  5
3
100
AcDbSymbolTable
 70
               3
  0
STYLE
  5
17
100
AcDbSymbolTableRecord
100
AcDbTextStyleTableRecord
  2
Standard
 70
               0
 40
0.0
 41
1.0
 50
0.0
 71
               0
 42
0.0
  3
txt
  4

  0
STYLE
  5
24
100
AcDbSymbolTableRecord
100
AcDbTextStyleTableRecord
  2
Arial
 70
               0
 40
10.22222
 41
1.0
 50
0.0
 71
               0
 42
10.22222
  3
Arial
  4

1001
ACAD
1000
Arial
1071
        0
  0
STYLE
  5
25
100
AcDbSymbolTableRecord
100
AcDbTextStyleTableRecord
  2
Lydian
 70
               0
 40
21.844907024453025
 41
1.0
 50
0.0
 71
               0
 42
21.844907024453025
  3
Lydian
  4

1001
ACAD
1000
Lydian
1071
        0
  0
ENDTAB
  0
TABLE
  2
VIEW
  5
5
100
AcDbSymbolTable
 70
               0
  0
ENDTAB
  0
TABLE
  2
UCS
  5
6
100
AcDbSymbolTable
 70
               0
  0
ENDTAB
  0
TABLE
  2
APPID
  5
8
100
AcDbSymbolTable
 70
               1
  0
APPID
  5
16
100
AcDbSymbolTableRecord
100
AcDbRegAppTableRecord
  2
ACAD
 70
               0
  0
ENDTAB
  0
TABLE
  2
DIMSTYLE
  5
9
100
AcDbSymbolTable
 70
               1
100
AcDbDimStyleTable
 71
               0
  0
DIMSTYLE
105
18
100
AcDbSymbolTableRecord
100
AcDbDimStyleTableRecord
  2
Standard
 70
               0
  3

  4

 40
1.0
 41
0.18
 42
0.0625
 43
0.38
 44
0.18
 45
0.0
 46
0.0
 47
0.0
 48
0.0
 71
               0
 72
               0
 73
               1
 74
               1
 75
               0
 76
               0
 77
               0
 78
               0
 79
               0
140
0.18
141
0.09
142
0.0
143
25.399999999999999
144
1.0
145
0.0
146
1.0
147
0.09
148
0.0
170
               0
171
               2
172
               0
173
               0
174
               0
175
               0
176
               0
177
               0
178
               0
179
               0
271
               4
272
               4
273
               2
274
               2
275
               0
276
               0
277
               2
278
              46
279
               0
280
               0
281
               0
282
               0
283
               1
284
               0
285
               0
286
               0
288
               0
340
17
341
0
342
0
343
0
344
0
371
              -2
372
              -2
  0
ENDTAB
  0
TABLE
  2
BLOCK_RECORD
  5
1
100
AcDbSymbolTable
 70
               1
  0
BLOCK_RECORD
  5
A
100
AcDbSymbolTableRecord
100
AcDbBlockTableRecord
  2
*MODEL_SPACE
340
20
  0
BLOCK_RECORD
  5
B
100
AcDbSymbolTableRecord
100
AcDbBlockTableRecord
  2
*PAPER_SPACE
340
21
  0
BLOCK_RECORD
  5
23
100
AcDbSymbolTableRecord
100
AcDbBlockTableRecord
  2
*U0
340
0
102
{BLKREFS
331
304
102
}
  0
ENDTAB
  0
ENDSEC
  0
SECTION
  2
BLOCKS
  0
BLOCK
  5
D
100
AcDbEntity
  8
0
100
AcDbBlockBegin
  2
*MODEL_SPACE
 70
               0
 10
0.0
 20
0.0
 30
0.0
  3
*MODEL_SPACE
  1

  0
ENDBLK
  5
E
100
AcDbEntity
  8
0
100
AcDbBlockEnd
  0
BLOCK
  5
F
100
AcDbEntity
 67
               1
  8
0
100
AcDbBlockBegin
  2
*PAPER_SPACE
 70
               0
 10
0.0
 20
0.0
 30
0.0
  3
*PAPER_SPACE
  1

  0
ENDBLK
  5
10
100
AcDbEntity
 67
               1
  8
0
100
AcDbBlockEnd
  0
BLOCK
  5
35
100
AcDbEntity
  8
Dimension
100
AcDbBlockBegin
  2
*U0
 70
               1
 10
0.0
 20
0.0
 30
0.0
  3
*U0
  1

  0
MTEXT
  5
36
100
AcDbEntity
  8
Dimension
 62
               7
100
AcDbMText
 10
-169.57398880140812
 20
-145.92840459427083
 30
0.0
 40
6.1498162166666672
 41
0.0
 71
               1
 72
               1
  1
2'-0"
  7
Arial
 73
               1
 44
1.0
  0
ENDBLK
  5
37
100
AcDbEntity
  8
Dimension
100
AcDbBlockEnd
  0
ENDSEC
  0
SECTION
  2
ENTITIES
  0
MTEXT
  5
38
100
AcDbEntity
  8
0
 62
               7
100
AcDbMText
 10
47.0
 20
-232.0
 30
0.0
 40
17.475925619562421
 41
0.0
 71
               1
 72
               1
  1
S.U.N.Y at Stony Brook Staller Center For the Arts\P
  7
Lydian
 73
               1
 44
1.0
  0
LINE
  5
39
100
AcDbEntity
  8
0
370
              30
  6
Continuous
 62
               7
100
AcDbLine
 10
-556.30315250000001
 20
-23.963722000000018
 30
0.0
 11
-556.30315250000001
 21
-4.9637220000000184
 31
0.0
  0
LINE
  5
3A
100
AcDbEntity
  8
0
370
              30
  6
Continuous
 62
               7
100
AcDbLine
 10
-556.30315250000001
 20
-4.9637220000000184
 30
0.0
 11
-532.30315250000012
 21
-4.9637220000000184
 31
0.0
  0
LINE
  5
3B
100
AcDbEntity
  8
0
370
              30
  6
Continuous
 62
               7
100
AcDbLine
 10
-532.30315250000012
 20
-4.9637220000000184
 30
0.0
 11
-538.30315250000012
 21
-4.9637220000000184
 31
0.0
  0
LINE
  5
3C
100
AcDbEntity
  8
0
370
              30
  6
Continuous
 62
               7
100
AcDbLine
 10
-538.30315250000012
 20
-4.9637320000000216
 30
0.0
 11
-538.30315250000012
 21
96.036268000000007
 31
0.0
  0
LINE
  5
3D
100
AcDbEntity
  8
0
370
              30
  6
Continuous
 62
               7
100
AcDbLine
 10
-535.30315250000001
 20
-4.9637320000000216
 30
0.0
 11
-535.30315250000001
 21
96.036268000000007
 31
0.0
  0
LINE
  5
3E
100
AcDbEntity
  8
0
370
              30
  6
Continuous
 62
               7
100
AcDbLine
 10
-556.30315250000001
 20
96.036258000000004
 30
0.0
 11
-556.30315250000001
 21
420.03625800000003
 31
0.0
  0
LINE
  5
3F
100
AcDbEntity
  8
0
370
              15
  6
Continuous
 62
               7
100
AcDbLine
 10
-556.30315250000001
 20
420.036248
 30
0.0
 11
547.69684749999999
 21
420.036248
 31
0.0
  0
LINE
  5
40
100
AcDbEntity
  8
0
370
              30
  6
Continuous
 62
               7
100
AcDbLine
 10
547.69684749999999
 20
420.036248
 30
0.0
 11
-556.30315250000001
 21
420.036248
 31
0.0
  0
LINE
  5
41
100
AcDbEntity
  8
0
370
              30
  6
Continuous
 62
               7
100
AcDbLine
 10
547.6968374999999
 20
420.036248
 30
0.0
 11
547.6968374999999
 21
-23.963732000000022
 31
0.0
  0
LINE
  5
42
100
AcDbEntity
  8
0
370
              30
  6
Continuous
 62
               7
100
AcDbLine
 10
-517.30315250000012
 20
-23.963722000000018
 30
0.0
 11
-517.30315250000012
 21
-14.963722000000018
 31
0.0
  0
LINE
  5
43
100
AcDbEntity
  8
0
370
              30
  6
Continuous
 62
               7
100
AcDbLine
 10
-517.30315250000012
 20
-14.963722000000018
 30
0.0
 11
-532.30315250000012
 21
-14.963722000000018
 31
0.0
  0
LINE
  5
44
100
AcDbEntity
  8
0
370
              30
  6
Continuous
 62
               7
100
AcDbLine
 10
-532.30315250000012
 20
-14.963722000000018
 30
0.0
 11
-532.30315250000012
 21
-11.963722000000018
 31
0.0
  0
LINE
  5
45
100
AcDbEntity
  8
0
370
              30
  6
Continuous
 62
               7
100
AcDbLine
 10
-517.30315250000012
 20
-23.963722000000018
 30
0.0
 11
-517.30315250000012
 21
-14.963722000000018
 31
0.0
  0
LINE
  5
46
100
AcDbEntity
  8
0
370
              30
  6
Continuous
 62
               7
100
AcDbLine
 10
-517.30315250000012
 20
-14.963722000000018
 30
0.0
 11
-532.30315250000012
 21
-14.963722000000018
 31
0.0
  0
LINE
  5
47
100
AcDbEntity
  8
0
370
              30
  6
Continuous
 62
               7
100
AcDbLine
 10
-532.30315250000012
 20
-14.963722000000018
 30
0.0
 11
-532.30315250000012
 21
-11.963722000000018
 31
0.0
  0
LINE
  5
48
100
AcDbEntity
  8
0
370
              30
  6
Continuous
 62
               7
100
AcDbLine
 10
-532.30315250000012
 20
-14.963722000000018
 30
0.0
 11
-532.30315250000012
 21
-4.9637220000000184
 31
0.0
  0
LINE
  5
49
100
AcDbEntity
  8
0
370
              30
  6
Continuous
 62
               7
100
AcDbLine
 10
-517.30316249999998
 20
-17.96372199999999
 30
0.0
 11
-484.30312250000003
 21
-17.96372199999999
 31
0.0
  0
LINE
  5
4A
100
AcDbEntity
  8
0
370
              30
  6
Continuous
 62
               7
100
AcDbLine
 10
-517.30316249999998
 20
-16.963722000000018
 30
0.0
 11
-484.30312250000003
 21
-16.963722000000018
 31
0.0
  0
LINE
  5
4B
100
AcDbEntity
  8
0
370
              30
  6
Continuous
 62
               7
100
AcDbLine
 10
-484.30312250000003
 20
-23.963722000000018
 30
0.0
 11
-484.30312250000003
 21
-14.963722000000018
 31
0.0
  0
LINE
  5
4C
100
AcDbEntity
  8
0
370
              30
  6
Continuous
 62
               7
100
AcDbLine
 10
-484.30312250000003
 20
-14.963722000000018
 30
0.0
 11
-463.30312250000003
 21
-14.963722000000018
 31
0.0
  0
LINE
  5
4D
100
AcDbEntity
  8
0
370
              30
  6
Continuous
 62
               7
100
AcDbLine
 10
-463.30312250000003
 20
-14.963722000000018
 30
0.0
 11
-463.30312250000003
 21
-23.963722000000018
 31
0.0
  0
LINE
  5
4E
100
AcDbEntity
  8
0
370
              30
  6
Continuous
 62
               7
100
AcDbLine
 10
-463.30312250000003
 20
-23.963722000000018
 30
0.0
 11
-463.30312250000003
 21
-16.963722000000018
 31
0.0
  0
LINE
  5
4F
100
AcDbEntity
  8
0
370
              30
  6
Continuous
 62
               7
100
AcDbLine
 10
-463.30312250000003
 20
-16.963722000000018
 30
0.0
 11
-433.30312250000003
 21
-16.963722000000018
 31
0.0
  0
LINE
  5
50
100
AcDbEntity
  8
0
370
              15
  6
Continuous
 62
               7
100
AcDbLine
 10
-433.30312250000003
 20
-16.963722000000018
 30
0.0
 11
-433.30312250000003
 21
-17.96372199999999
 31
0.0
  0
LINE
  5
51
100
AcDbEntity
  8
0
370
              30
  6
Continuous
 62
               7
100
AcDbLine
 10
-433.30312250000003
 20
-14.963722000000018
 30
0.0
 11
-320.30312249999997
 21
-14.963722000000018
 31
0.0
  0
LINE
  5
52
100
AcDbEntity
  8
0
370
              30
  6
Continuous
 62
               7
100
AcDbLine
 10
-320.30312249999997
 20
-14.963722000000018
 30
0.0
 11
-320.30312249999997
 21
0.0362779999999816
 31
0.0
  0
LINE
  5
53
100
AcDbEntity
  8
0
370
              30
  6
Continuous
 62
               7
100
AcDbLine
 10
-320.30312249999997
 20
0.0362779999999816
 30
0.0
 11
-277.30312249999997
 21
0.0362779999999816
 31
0.0
  0
LINE
  5
54
100
AcDbEntity
  8
0
370
              30
  6
Continuous
 62
               7
100
AcDbLine
 10
-556.30315250000001
 20
-23.963722000000018
 30
0.0
 11
-517.30315250000012
 21
-23.963722000000018
 31
0.0
  0
LINE
  5
55
100
AcDbEntity
  8
0
370
              30
  6
Continuous
 62
               7
100
AcDbLine
 10
-484.30312250000003
 20
-23.963722000000018
 30
0.0
 11
-463.30312250000003
 21
-23.963722000000018
 31
0.0
  0
LINE
  5
56
100
AcDbEntity
  8
0
370
              30
  6
Continuous
 62
               7
100
AcDbLine
 10
-433.30312250000003
 20
-23.963722000000018
 30
0.0
 11
-433.30312250000003
 21
-14.963722000000018
 31
0.0
  0
LINE
  5
57
100
AcDbEntity
  8
0
370
              30
  6
Continuous
 62
               7
100
AcDbLine
 10
466.69683750000002
 20
-23.963722000000018
 30
0.0
 11
547.6968374999999
 21
-23.963722000000018
 31
0.0
  0
LINE
  5
58
100
AcDbEntity
  8
0
370
              15
  6
Continuous
 62
               7
100
AcDbLine
 10
280.69683750000002
 20
0.0362779999999816
 30
0.0
 11
319.69683750000002
 21
0.0362779999999816
 31
0.0
  0
LINE
  5
59
100
AcDbEntity
  8
0
370
              30
  6
Continuous
 62
               7
100
AcDbLine
 10
319.69683750000002
 20
0.0362779999999816
 30
0.0
 11
319.69683750000002
 21
-14.963722000000018
 31
0.0
  0
LINE
  5
5A
100
AcDbEntity
  8
0
370
              30
  6
Continuous
 62
               7
100
AcDbLine
 10
319.69683750000002
 20
-14.963722000000018
 30
0.0
 11
436.69683750000002
 21
-14.963722000000018
 31
0.0
  0
LINE
  5
5B
100
AcDbEntity
  8
0
370
              30
  6
Continuous
 62
               7
100
AcDbLine
 10
436.69683750000002
 20
-14.963722000000018
 30
0.0
 11
436.69683750000002
 21
-23.963722000000018
 31
0.0
  0
LINE
  5
5C
100
AcDbEntity
  8
0
370
              30
  6
Continuous
 62
               7
100
AcDbLine
 10
436.69683750000002
 20
-17.96372199999999
 30
0.0
 11
466.69683750000002
 21
-17.96372199999999
 31
0.0
  0
LINE
  5
5D
100
AcDbEntity
  8
0
370
              30
  6
Continuous
 62
               7
100
AcDbLine
 10
466.69683750000002
 20
-16.963722000000018
 30
0.0
 11
436.69683750000002
 21
-16.963722000000018
 31
0.0
  0
LINE
  5
5E
100
AcDbEntity
  8
0
370
              30
  6
Continuous
 62
               7
100
AcDbLine
 10
466.69683750000002
 20
-23.963722000000018
 30
0.0
 11
466.69683750000002
 21
-14.963722000000018
 31
0.0
  0
LINE
  5
5F
100
AcDbEntity
  8
0
370
              30
  6
Continuous
 62
               7
100
AcDbLine
 10
466.69683750000002
 20
-14.963722000000018
 30
0.0
 11
526.69683750000002
 21
-14.963722000000018
 31
0.0
  0
LINE
  5
60
100
AcDbEntity
  8
0
370
              30
  6
Continuous
 62
               7
100
AcDbLine
 10
526.69683750000002
 20
-14.963722000000018
 30
0.0
 11
526.69683750000002
 21
0.0362779999999816
 31
0.0
  0
LINE
  5
61
100
AcDbEntity
  8
0
370
              30
  6
Continuous
 62
               7
100
AcDbLine
 10
-556.30315250000001
 20
96.036268000000007
 30
0.0
 11
-532.30315250000012
 21
96.036268000000007
 31
0.0
  0
LINE
  5
62
100
AcDbEntity
  8
0
370
              30
  6
Continuous
 62
               7
100
AcDbLine
 10
-532.30315250000012
 20
96.036268000000007
 30
0.0
 11
-532.30315250000012
 21
105.03628799999998
 31
0.0
  0
LINE
  5
63
100
AcDbEntity
  8
0
370
              30
  6
Continuous
 62
               7
100
AcDbLine
 10
-532.30315250000012
 20
105.036278
 30
0.0
 11
-541.30315250000001
 21
105.036278
 31
0.0
  0
LINE
  5
64
100
AcDbEntity
  8
0
370
              30
  6
Continuous
 62
               7
100
AcDbLine
 10
-541.30315250000001
 20
105.036278
 30
0.0
 11
-541.30315250000001
 21
216.03627799999998
 31
0.0
  0
LINE
  5
65
100
AcDbEntity
  8
0
370
              30
  6
Continuous
 62
               7
100
AcDbLine
 10
-541.30315250000001
 20
216.03627799999998
 30
0.0
 11
-520.30315250000001
 21
216.03627799999998
 31
0.0
  0
LINE
  5
66
100
AcDbEntity
  8
0
370
              30
  6
Continuous
 62
               7
100
AcDbLine
 10
-520.30315250000001
 20
216.03627799999998
 30
0.0
 11
-520.30315250000001
 21
237.03625799999998
 31
0.0
  0
LINE
  5
67
100
AcDbEntity
  8
0
370
              30
  6
Continuous
 62
               7
100
AcDbLine
 10
-520.30315250000001
 20
237.036248
 30
0.0
 11
-541.30315250000001
 21
237.036248
 31
0.0
  0
LINE
  5
68
100
AcDbEntity
  8
0
370
              30
  6
Continuous
 62
               7
100
AcDbLine
 10
-541.30315250000001
 20
237.036248
 30
0.0
 11
-541.30315250000001
 21
405.036248
 31
0.0
  0
LINE
  5
69
100
AcDbEntity
  8
0
370
              30
  6
Continuous
 62
               7
100
AcDbLine
 10
-541.30315250000001
 20
405.036248
 30
0.0
 11
-535.30315250000001
 21
405.036248
 31
0.0
  0
LINE
  5
6A
100
AcDbEntity
  8
0
370
              30
  6
Continuous
 62
               7
100
AcDbLine
 10
-535.30315250000001
 20
405.036248
 30
0.0
 11
-535.30315250000001
 21
408.036248
 31
0.0
  0
LINE
  5
6B
100
AcDbEntity
  8
0
370
              30
  6
Continuous
 62
               7
100
AcDbLine
 10
-505.30312249999997
 20
372.036248
 30
0.0
 11
-529.3031625000001
 21
348.036248
 31
0.0
  0
LINE
  5
6C
100
AcDbEntity
  8
0
370
              30
  6
Continuous
 62
               7
100
AcDbLine
 10
-536.3031625000001
 20
360.036248
 30
0.0
 11
-505.30312249999997
 21
372.036248
 31
0.0
  0
LINE
  5
6D
100
AcDbEntity
  8
0
370
              30
  6
Continuous
 62
               7
100
AcDbLine
 10
-505.30312249999997
 20
372.036248
 30
0.0
 11
-536.3031625000001
 21
384.036248
 31
0.0
  0
LINE
  5
6E
100
AcDbEntity
  8
0
370
              30
  6
Continuous
 62
               7
100
AcDbLine
 10
-505.30312249999997
 20
372.036248
 30
0.0
 11
-499.30312250000003
 21
404.036248
 31
0.0
  0
LINE
  5
6F
100
AcDbEntity
  8
0
370
              30
  6
Continuous
 62
               7
100
AcDbLine
 10
-499.30312250000003
 20
404.036248
 30
0.0
 11
-505.30312249999997
 21
372.036248
 31
0.0
  0
LINE
  5
70
100
AcDbEntity
  8
0
370
              30
  6
Continuous
 62
               7
100
AcDbLine
 10
-475.30312249999997
 20
386.036248
 30
0.0
 11
-505.30312249999997
 21
372.036248
 31
0.0
  0
LINE
  5
71
100
AcDbEntity
  8
0
370
              30
  6
Continuous
 62
               7
100
AcDbLine
 10
-535.3031625000001
 20
408.036248
 30
0.0
 11
-469.30312250000003
 21
408.036248
 31
0.0
  0
LINE
  5
72
100
AcDbEntity
  8
0
370
              30
  6
Continuous
 62
               7
100
AcDbLine
 10
-469.30312250000003
 20
408.036248
 30
0.0
 11
-469.30312250000003
 21
378.036248
 31
0.0
  0
LINE
  5
73
100
AcDbEntity
  8
0
370
              30
  6
Continuous
 62
               7
100
AcDbLine
 10
-469.30312250000003
 20
378.036248
 30
0.0
 11
-400.30312249999997
 21
378.036248
 31
0.0
  0
LINE
  5
74
100
AcDbEntity
  8
0
370
              30
  6
Continuous
 62
               7
100
AcDbLine
 10
-400.30312249999997
 20
378.036248
 30
0.0
 11
-400.30312249999997
 21
408.036248
 31
0.0
  0
LINE
  5
75
100
AcDbEntity
  8
0
370
              30
  6
Continuous
 62
               7
100
AcDbLine
 10
-400.30312249999997
 20
408.036248
 30
0.0
 11
-373.30312250000003
 21
408.036248
 31
0.0
  0
LINE
  5
76
100
AcDbEntity
  8
0
370
              30
  6
Continuous
 62
               7
100
AcDbLine
 10
-373.30312250000003
 20
408.036248
 30
0.0
 11
-373.30312250000003
 21
381.036248
 31
0.0
  0
LINE
  5
77
100
AcDbEntity
  8
0
370
              30
  6
Continuous
 62
               7
100
AcDbLine
 10
-373.30312250000003
 20
381.036248
 30
0.0
 11
-349.30312250000003
 21
381.036248
 31
0.0
  0
LINE
  5
78
100
AcDbEntity
  8
0
370
              30
  6
Continuous
 62
               7
100
AcDbLine
 10
-349.30312250000003
 20
381.036248
 30
0.0
 11
-349.30312250000003
 21
408.036248
 31
0.0
  0
LINE
  5
79
100
AcDbEntity
  8
0
370
              30
  6
Continuous
 62
               7
100
AcDbLine
 10
-349.30312250000003
 20
408.036248
 30
0.0
 11
-328.30312250000003
 21
408.036248
 31
0.0
  0
LINE
  5
7A
100
AcDbEntity
  8
0
370
              30
  6
Continuous
 62
               7
100
AcDbLine
 10
-328.30312250000003
 20
408.036248
 30
0.0
 11
-328.30312250000003
 21
393.036248
 31
0.0
  0
LINE
  5
7B
100
AcDbEntity
  8
0
370
              30
  6
Continuous
 62
               7
100
AcDbLine
 10
-328.30312250000003
 20
393.036248
 30
0.0
 11
-301.30312249999997
 21
393.036248
 31
0.0
  0
LINE
  5
7C
100
AcDbEntity
  8
0
370
              30
  6
Continuous
 62
               7
100
AcDbLine
 10
-301.30312249999997
 20
393.036248
 30
0.0
 11
-301.30312249999997
 21
408.036248
 31
0.0
  0
LINE
  5
7D
100
AcDbEntity
  8
0
370
              30
  6
Continuous
 62
               7
100
AcDbLine
 10
-301.3031325
 20
408.036248
 30
0.0
 11
-190.30311250000003
 21
408.036248
 31
0.0
  0
LINE
  5
7E
100
AcDbEntity
  8
0
370
              30
  6
Continuous
 62
               7
100
AcDbLine
 10
-190.30311250000003
 20
408.036248
 30
0.0
 11
-190.30311250000003
 21
381.036248
 31
0.0
  0
LINE
  5
7F
100
AcDbEntity
  8
0
370
              30
  6
Continuous
 62
               7
100
AcDbLine
 10
-190.30311250000003
 20
381.036248
 30
0.0
 11
-166.3031125
 21
381.036248
 31
0.0
  0
LINE
  5
80
100
AcDbEntity
  8
0
370
              30
  6
Continuous
 62
               7
100
AcDbLine
 10
-166.3031125
 20
381.036248
 30
0.0
 11
-166.3031125
 21
408.036248
 31
0.0
  0
LINE
  5
81
100
AcDbEntity
  8
0
370
              30
  6
Continuous
 62
               7
100
AcDbLine
 10
-166.30310250000002
 20
408.036248
 30
0.0
 11
-10.303142500000005
 21
408.036248
 31
0.0
  0
LINE
  5
82
100
AcDbEntity
  8
0
370
              30
  6
Continuous
 62
               7
100
AcDbLine
 10
-10.303142500000005
 20
408.036248
 30
0.0
 11
-10.303142500000005
 21
381.036248
 31
0.0
  0
LINE
  5
83
100
AcDbEntity
  8
0
370
              30
  6
Continuous
 62
               7
100
AcDbLine
 10
-10.303152500000005
 20
381.036248
 30
0.0
 11
13.696847499999995
 21
381.036248
 31
0.0
  0
LINE
  5
84
100
AcDbEntity
  8
0
370
              30
  6
Continuous
 62
               7
100
AcDbLine
 10
13.696847499999995
 20
381.036248
 30
0.0
 11
13.696847499999995
 21
408.036248
 31
0.0
  0
LINE
  5
85
100
AcDbEntity
  8
0
370
              30
  6
Continuous
 62
               7
100
AcDbLine
 10
13.696847499999995
 20
408.036248
 30
0.0
 11
169.69684749999999
 21
408.036248
 31
0.0
  0
LINE
  5
86
100
AcDbEntity
  8
0
370
              30
  6
Continuous
 62
               7
100
AcDbLine
 10
169.69684749999999
 20
408.036248
 30
0.0
 11
169.69684749999999
 21
381.036248
 31
0.0
  0
LINE
  5
87
100
AcDbEntity
  8
0
370
              30
  6
Continuous
 62
               7
100
AcDbLine
 10
169.69684749999999
 20
381.036248
 30
0.0
 11
193.69684749999999
 21
381.036248
 31
0.0
  0
LINE
  5
88
100
AcDbEntity
  8
0
370
              30
  6
Continuous
 62
               7
100
AcDbLine
 10
193.69684749999999
 20
381.036248
 30
0.0
 11
193.69684749999999
 21
408.036248
 31
0.0
  0
LINE
  5
89
100
AcDbEntity
  8
0
370
              30
  6
Continuous
 62
               7
100
AcDbLine
 10
193.69684749999999
 20
408.036248
 30
0.0
 11
346.69682750000004
 21
408.036248
 31
0.0
  0
LINE
  5
8A
100
AcDbEntity
  8
0
370
              30
  6
Continuous
 62
               7
100
AcDbLine
 10
346.69683750000002
 20
408.036248
 30
0.0
 11
346.69683750000002
 21
381.036248
 31
0.0
  0
LINE
  5
8B
100
AcDbEntity
  8
0
370
              30
  6
Continuous
 62
               7
100
AcDbLine
 10
346.69683750000002
 20
381.036248
 30
0.0
 11
448.69683750000007
 21
381.036248
 31
0.0
  0
LINE
  5
8C
100
AcDbEntity
  8
0
370
              30
  6
Continuous
 62
               7
100
AcDbLine
 10
448.69683750000007
 20
381.036248
 30
0.0
 11
448.69683750000007
 21
408.036248
 31
0.0
  0
LINE
  5
8D
100
AcDbEntity
  8
0
370
              30
  6
Continuous
 62
               7
100
AcDbLine
 10
448.69683750000007
 20
408.036248
 30
0.0
 11
529.69683750000002
 21
408.036248
 31
0.0
  0
LINE
  5
8E
100
AcDbEntity
  8
0
370
              30
  6
Continuous
 62
               7
100
AcDbLine
 10
529.69683750000002
 20
408.036248
 30
0.0
 11
529.69683750000002
 21
405.036248
 31
0.0
  0
LINE
  5
8F
100
AcDbEntity
  8
0
370
              30
  6
Continuous
 62
               7
100
AcDbLine
 10
529.69683750000002
 20
405.036248
 30
0.0
 11
538.69683750000002
 21
405.036248
 31
0.0
  0
CIRCLE
  5
90
100
AcDbEntity
  8
0
370
              30
  6
Continuous
 62
               7
100
AcDbCircle
 10
-505.28866249999999
 20
371.94408799999997
 30
0.0
 40
33.650540000000021
  0
LINE
  5
91
100
AcDbEntity
  8
0
370
              30
  6
Continuous
 62
               7
100
AcDbLine
 10
-505.28866249999999
 20
371.94408799999997
 30
0.0
 11
-505.28866249999999
 21
338.40624800000001
 31
0.0
  0
LINE
  5
92
100
AcDbEntity
  8
0
370
              30
  6
Continuous
 62
               7
100
AcDbLine
 10
-505.62810250000001
 20
373.131888
 30
0.0
 11
-511.73864249999997
 21
404.85314799999998
 31
0.0
  0
LINE
  5
93
100
AcDbEntity
  8
0
370
              30
  6
Continuous
 62
               7
100
AcDbLine
 10
-505.4244425
 20
371.94408799999997
 30
0.0
 11
-527.69378250000011
 21
397.09752800000001
 31
0.0
  0
LINE
  5
94
100
AcDbEntity
  8
0
370
              30
  6
Continuous
 62
               7
100
AcDbLine
 10
-505.3565625
 20
372.01396799999998
 30
0.0
 11
-483.22302250000001
 21
397.30712799999998
 31
0.0
  0
LINE
  5
95
100
AcDbEntity
  8
0
370
              30
  6
Continuous
 62
               7
100
AcDbLine
 10
-505.28866249999999
 20
372.08385799999996
 30
0.0
 11
-471.74890249999999
 21
372.08385799999996
 31
0.0
  0
LINE
  5
96
100
AcDbEntity
  8
0
370
              30
  6
Continuous
 62
               7
100
AcDbLine
 10
-505.28866249999999
 20
372.08385799999996
 30
0.0
 11
-471.74890249999999
 21
372.08385799999996
 31
0.0
  0
LINE
  5
97
100
AcDbEntity
  8
0
370
              30
  6
Continuous
 62
               7
100
AcDbLine
 10
-472.2792925
 20
372.07946800000002
 30
0.0
 11
-471.63431250000002
 21
372.07946800000002
 31
0.0
  0
LINE
  5
98
100
AcDbEntity
  8
0
370
              30
  6
Continuous
 62
               7
100
AcDbLine
 10
-505.28862249999997
 20
372.083798
 30
0.0
 11
-517.64544250000006
 21
340.64207799999997
 31
0.0
  0
LINE
  5
99
100
AcDbEntity
  8
0
370
              30
  6
Continuous
 62
               7
100
AcDbLine
 10
-505.28863250000001
 20
372.083798
 30
0.0
 11
-538.82843250000008
 21
372.083798
 31
0.0
  0
LINE
  5
9A
100
AcDbEntity
  8
0
370
              30
  6
Continuous
 62
               7
100
AcDbLine
 10
538.69683750000002
 20
405.036248
 30
0.0
 11
538.69683750000002
 21
249.036248
 31
0.0
  0
LINE
  5
9B
100
AcDbEntity
  8
0
370
              30
  6
Continuous
 62
               7
100
AcDbLine
 10
538.69683750000002
 20
249.036248
 30
0.0
 11
514.69683750000002
 21
249.036248
 31
0.0
  0
LINE
  5
9C
100
AcDbEntity
  8
0
370
              30
  6
Continuous
 62
               7
100
AcDbLine
 10
514.69683750000002
 20
249.036258
 30
0.0
 11
514.69683750000002
 21
216.03627799999998
 31
0.0
  0
LINE
  5
9D
100
AcDbEntity
  8
0
370
              30
  6
Continuous
 62
               7
100
AcDbLine
 10
514.69683750000002
 20
216.03627799999998
 30
0.0
 11
538.69683750000002
 21
216.03627799999998
 31
0.0
  0
LINE
  5
9E
100
AcDbEntity
  8
0
370
              30
  6
Continuous
 62
               7
100
AcDbLine
 10
538.69683750000002
 20
216.03628800000001
 30
0.0
 11
538.69683750000002
 21
0.0362679999999784
 31
0.0
  0
LINE
  5
9F
100
AcDbEntity
  8
0
370
              15
  6
Continuous
 62
               7
100
AcDbLine
 10
289.69683750000002
 20
-23.963722000000018
 30
0.0
 11
286.69683750000007
 21
-23.963722000000018
 31
0.0
  0
LINE
  5
A0
100
AcDbEntity
  8
0
370
              15
  6
Continuous
 62
               7
100
AcDbLine
 10
289.69683750000002
 20
-23.963722000000018
 30
0.0
 11
286.69683750000007
 21
-23.963722000000018
 31
0.0
  0
LINE
  5
A1
100
AcDbEntity
  8
0
370
              15
  6
Continuous
 62
               7
100
AcDbLine
 10
277.5048175
 20
0.0637179999999944
 30
0.0
 11
281.50481750000006
 21
0.0637179999999944
 31
0.0
  0
LINE
  5
A2
100
AcDbEntity
  8
0
370
              30
  6
Continuous
 62
               7
100
AcDbLine
 10
-284.99517249999997
 20
-23.998772000000031
 30
0.0
 11
-277.49517249999997
 21
0.0012279999999976
 31
0.0
  0
LINE
  5
A3
100
AcDbEntity
  8
0
370
              30
  6
Continuous
 62
               7
100
AcDbLine
 10
285.0048175
 20
-23.998772000000031
 30
0.0
 11
277.5048175
 21
0.0012279999999976
 31
0.0
  0
LINE
  5
A4
100
AcDbEntity
  8
0
370
              30
  6
Continuous
 62
               7
100
AcDbLine
 10
-433.31762250000003
 20
-23.973792000000003
 30
0.0
 11
-284.9951825
 21
-23.998772000000031
 31
0.0
  0
LINE
  5
A5
100
AcDbEntity
  8
0
370
              30
  6
Continuous
 62
               7
100
AcDbLine
 10
436.69389749999999
 20
-23.969482000000028
 30
0.0
 11
285.0048175
 21
-23.998782000000006
 31
0.0
  0
LINE
  5
A6
100
AcDbEntity
  8
0
370
              30
  6
Continuous
 62
               7
100
AcDbLine
 10
242.00482749999998
 20
-23.998772000000031
 30
0.0
 11
-241.99517250000002
 21
-23.998772000000031
 31
0.0
  0
LINE
  5
A7
100
AcDbEntity
  8
0
370
              30
  6
Continuous
 62
               7
100
AcDbLine
 10
271.0048175
 20
-143.99877200000003
 30
0.0
 11
-270.9951825
 21
-143.99877200000003
 31
0.0
  0
LINE
  5
A8
100
AcDbEntity
  8
0
370
              30
  6
Continuous
 62
               7
100
AcDbLine
 10
242.00483750000001
 20
-23.998772000000031
 30
0.0
 11
271.0048175
 21
-143.99877200000003
 31
0.0
  0
LINE
  5
A9
100
AcDbEntity
  8
0
370
              30
  6
Continuous
 62
               7
100
AcDbLine
 10
-241.99515250000002
 20
-23.998772000000031
 30
0.0
 11
-270.99517250000002
 21
-143.99877200000003
 31
0.0
  0
LINE
  5
AA
100
AcDbEntity
  8
0
370
              30
  6
Continuous
 62
               7
100
AcDbLine
 10
285.0048175
 20
-23.998772000000031
 30
0.0
 11
314.00481750000006
 21
-143.99877200000003
 31
0.0
  0
LINE
  5
AB
100
AcDbEntity
  8
0
370
              15
  6
Continuous
 62
               7
100
AcDbLine
 10
314.00481750000006
 20
-143.99877200000003
 30
0.0
 11
317.00481750000006
 21
-143.99877200000003
 31
0.0
  0
LINE
  5
AC
100
AcDbEntity
  8
0
370
              30
  6
Continuous
 62
               7
100
AcDbLine
 10
317.00481750000006
 20
-143.99877200000003
 30
0.0
 11
288.0048175
 21
-23.998772000000031
 31
0.0
  0
LINE
  5
AD
100
AcDbEntity
  8
0
370
              30
  6
Continuous
 62
               7
100
AcDbLine
 10
299.68706750000001
 20
-84.769322000000017
 30
0.0
 11
302.50468750000005
 21
-84.035682000000008
 31
0.0
  0
LINE
  5
AE
100
AcDbEntity
  8
0
370
              30
  6
Continuous
 62
               7
100
AcDbLine
 10
-284.99517249999997
 20
-23.998772000000031
 30
0.0
 11
-313.99517250000002
 21
-143.99877200000003
 31
0.0
  0
LINE
  5
AF
100
AcDbEntity
  8
0
370
              15
  6
Continuous
 62
               7
100
AcDbLine
 10
-313.99517250000002
 20
-143.99877200000003
 30
0.0
 11
-316.99517249999997
 21
-143.99877200000003
 31
0.0
  0
LINE
  5
B0
100
AcDbEntity
  8
0
370
              30
  6
Continuous
 62
               7
100
AcDbLine
 10
-316.99517249999997
 20
-143.99877200000003
 30
0.0
 11
-287.99517249999997
 21
-23.998772000000031
 31
0.0
  0
LINE
  5
B1
100
AcDbEntity
  8
0
370
              30
  6
Continuous
 62
               7
100
AcDbLine
 10
-302.50121250000001
 20
-84.021201999999988
 30
0.0
 11
-299.6666525
 21
-84.702442000000019
 31
0.0
  0
LINE
  5
B2
100
AcDbEntity
  8
0
370
              30
  6
Continuous
 62
               7
100
AcDbLine
 10
-269.09274249999999
 20
-144.02532200000002
 30
0.0
 11
-292.0936825
 21
-144.02532200000002
 31
0.0
  0
LINE
  5
B3
100
AcDbEntity
  8
0
370
              30
  6
Continuous
 62
               7
100
AcDbLine
 10
-291.9309025
 20
-144.01922200000001
 30
0.0
 11
-314.68904249999997
 21
-144.01922200000001
 31
0.0
  0
LINE
  5
B4
100
AcDbEntity
  8
0
370
              30
  6
Continuous
 62
               7
100
AcDbLine
 10
268.50231750000006
 20
-143.99827200000004
 30
0.0
 11
315.4308375
 21
-143.99827200000004
 31
0.0
  0
LINE
  5
B5
100
AcDbEntity
  8
0
370
              15
  6
STYLE_03
 62
               7
100
AcDbLine
 10
277.5048175
 20
0.0012179999999944
 30
0.0
 11
-277.4951825
 21
0.0012179999999944
 31
0.0
  0
LINE
  5
B6
100
AcDbEntity
  8
0
370
              15
  6
STYLE_02
 62
               7
100
AcDbLine
 10
219.0048275
 20
324.00121799999999
 30
0.0
 11
-218.99517250000002
 21
324.00121799999999
 31
0.0
  0
LINE
  5
B7
100
AcDbEntity
  8
0
370
              15
  6
STYLE_02
 62
               7
100
AcDbLine
 10
-218.99516249999999
 20
324.00121799999999
 30
0.0
 11
-218.99516249999999
 21
406.00121799999999
 31
0.0
  0
LINE
  5
B8
100
AcDbEntity
  8
0
370
              15
  6
STYLE_02
 62
               7
100
AcDbLine
 10
219.0048275
 20
324.00121799999999
 30
0.0
 11
219.0048275
 21
406.00121799999999
 31
0.0
  0
LINE
  5
B9
100
AcDbEntity
  8
0
370
              15
  6
Continuous
 62
               7
100
AcDbLine
 10
477.0048175
 20
0.0012179999999944
 30
0.0
 11
477.0048175
 21
317.00121799999999
 31
0.0
  0
LINE
  5
BA
100
AcDbEntity
  8
0
370
              15
  6
Continuous
 62
               7
100
AcDbLine
 10
507.0048175
 20
317.00121799999999
 30
0.0
 11
507.0048175
 21
0.0012179999999944
 31
0.0
  0
LINE
  5
BB
100
AcDbEntity
  8
0
370
              15
  6
Continuous
 62
               7
100
AcDbLine
 10
507.0048175
 20
0.0012179999999944
 30
0.0
 11
477.0048175
 21
0.0012179999999944
 31
0.0
  0
LINE
  5
BC
100
AcDbEntity
  8
0
370
              30
  6
Continuous
 62
               7
100
AcDbLine
 10
446.0048175
 20
317.00121799999999
 30
0.0
 11
538.00481750000006
 21
317.00121799999999
 31
0.0
  0
LINE
  5
BD
100
AcDbEntity
  8
0
370
              30
  6
Continuous
 62
               7
100
AcDbLine
 10
446.0048175
 20
317.00121799999999
 30
0.0
 11
446.0048175
 21
380.00121799999999
 31
0.0
  0
LINE
  5
BE
100
AcDbEntity
  8
0
370
              15
  6
Continuous
 62
               7
100
AcDbLine
 10
446.00670750000006
 20
379.90404799999999
 30
0.0
 11
446.00670750000006
 21
381.037868
 31
0.0
  0
LINE
  5
BF
100
AcDbEntity
  8
0
370
              15
  6
STYLE_02
 62
               7
100
AcDbLine
 10
-532.37200250000012
 20
95.971097999999998
 30
0.0
 11
-436.37200250000001
 21
95.971097999999998
 31
0.0
  0
LINE
  5
C0
100
AcDbEntity
  8
0
370
              15
  6
STYLE_02
 62
               7
100
AcDbLine
 10
-436.37200250000001
 20
95.971087999999995
 30
0.0
 11
-436.37200250000001
 21
376.96990800000003
 31
0.0
  0
LINE
  5
C1
100
AcDbEntity
  8
0
370
              15
  6
Continuous
 62
               7
100
AcDbLine
 10
-301.37200250000001
 20
-0.0289020000000164
 30
0.0
 11
-301.37200250000001
 21
11.971097999999998
 31
0.0
  0
LINE
  5
C2
100
AcDbEntity
  8
0
370
              15
  6
Continuous
 62
               7
100
AcDbLine
 10
-284.37200249999995
 20
11.971097999999998
 30
0.0
 11
-307.37200250000001
 21
11.971097999999998
 31
0.0
  0
LINE
  5
C3
100
AcDbEntity
  8
0
370
              30
  6
Continuous
 62
               7
100
AcDbLine
 10
-307.37200250000001
 20
11.971097999999998
 30
0.0
 11
-284.37200249999995
 21
11.971097999999998
 31
0.0
  0
LINE
  5
C4
100
AcDbEntity
  8
0
370
              15
  6
Continuous
 62
               7
100
AcDbLine
 10
-307.37200250000001
 20
11.971097999999998
 30
0.0
 11
-307.37200250000001
 21
27.971097999999998
 31
0.0
  0
LINE
  5
C5
100
AcDbEntity
  8
0
370
              15
  6
Continuous
 62
               7
100
AcDbLine
 10
-307.37200250000001
 20
27.971097999999998
 30
0.0
 11
-431.37200250000001
 21
27.971097999999998
 31
0.0
  0
LINE
  5
C6
100
AcDbEntity
  8
0
370
              15
  6
Continuous
 62
               7
100
AcDbLine
 10
-431.37200250000001
 20
27.971097999999998
 30
0.0
 11
-431.37200250000001
 21
20.971097999999998
 31
0.0
  0
LINE
  5
C7
100
AcDbEntity
  8
0
370
              15
  6
Continuous
 62
               7
100
AcDbLine
 10
-431.37200250000001
 20
20.971097999999998
 30
0.0
 11
-307.37200250000001
 21
20.971097999999998
 31
0.0
  0
LINE
  5
C8
100
AcDbEntity
  8
0
370
              15
  6
Continuous
 62
               7
100
AcDbLine
 10
-318.37200250000001
 20
10.971097999999984
 30
0.0
 11
-318.37200250000001
 21
19.971097999999984
 31
0.0
  0
LINE
  5
C9
100
AcDbEntity
  8
0
370
              15
  6
Continuous
 62
               7
100
AcDbLine
 10
-318.37200250000001
 20
19.971097999999984
 30
0.0
 11
-431.37200250000001
 21
19.971097999999984
 31
0.0
  0
LINE
  5
CA
100
AcDbEntity
  8
0
370
              15
  6
Continuous
 62
               7
100
AcDbLine
 10
-431.37200250000001
 20
19.971097999999984
 30
0.0
 11
-431.37200250000001
 21
10.971097999999984
 31
0.0
  0
LINE
  5
CB
100
AcDbEntity
  8
0
370
              15
  6
Continuous
 62
               7
100
AcDbLine
 10
-431.37200250000001
 20
10.971097999999984
 30
0.0
 11
-318.37200250000001
 21
10.971097999999984
 31
0.0
  0
LINE
  5
CC
100
AcDbEntity
  8
0
370
              30
  6
Continuous
 62
               7
100
AcDbLine
 10
-301.48821249999997
 20
11.902367999999996
 30
0.0
 11
-301.48821249999997
 21
0.0652079999999842
 31
0.0
  0
LINE
  5
CD
100
AcDbEntity
  8
0
370
              30
  6
Continuous
 62
               7
100
AcDbLine
 10
318.77751750000004
 20
0.0362779999999816
 30
0.0
 11
275.77751750000004
 21
0.0362779999999816
 31
0.0
  0
LINE
  5
CE
100
AcDbEntity
  8
0
370
              15
  6
Continuous
 62
               7
100
AcDbLine
 10
299.84636750000004
 20
-0.0289020000000164
 30
0.0
 11
299.84636750000004
 21
11.971097999999998
 31
0.0
  0
LINE
  5
CF
100
AcDbEntity
  8
0
370
              15
  6
Continuous
 62
               7
100
AcDbLine
 10
282.84636750000004
 20
11.971097999999998
 30
0.0
 11
305.84636750000004
 21
11.971097999999998
 31
0.0
  0
LINE
  5
D0
100
AcDbEntity
  8
0
370
              30
  6
Continuous
 62
               7
100
AcDbLine
 10
305.84636750000004
 20
11.971097999999998
 30
0.0
 11
282.84636750000004
 21
11.971097999999998
 31
0.0
  0
LINE
  5
D1
100
AcDbEntity
  8
0
370
              15
  6
Continuous
 62
               7
100
AcDbLine
 10
305.84636750000004
 20
11.971097999999998
 30
0.0
 11
305.84636750000004
 21
27.971097999999998
 31
0.0
  0
LINE
  5
D2
100
AcDbEntity
  8
0
370
              15
  6
Continuous
 62
               7
100
AcDbLine
 10
305.84636750000004
 20
27.971097999999998
 30
0.0
 11
429.84636750000004
 21
27.971097999999998
 31
0.0
  0
LINE
  5
D3
100
AcDbEntity
  8
0
370
              15
  6
Continuous
 62
               7
100
AcDbLine
 10
429.84636750000004
 20
27.971097999999998
 30
0.0
 11
429.84636750000004
 21
20.971097999999998
 31
0.0
  0
LINE
  5
D4
100
AcDbEntity
  8
0
370
              15
  6
Continuous
 62
               7
100
AcDbLine
 10
429.84636750000004
 20
20.971097999999998
 30
0.0
 11
305.84636750000004
 21
20.971097999999998
 31
0.0
  0
LINE
  5
D5
100
AcDbEntity
  8
0
370
              15
  6
Continuous
 62
               7
100
AcDbLine
 10
316.84636750000004
 20
10.971097999999984
 30
0.0
 11
316.84636750000004
 21
19.971097999999984
 31
0.0
  0
LINE
  5
D6
100
AcDbEntity
  8
0
370
              15
  6
Continuous
 62
               7
100
AcDbLine
 10
316.84636750000004
 20
19.971097999999984
 30
0.0
 11
429.84636750000004
 21
19.971097999999984
 31
0.0
  0
LINE
  5
D7
100
AcDbEntity
  8
0
370
              15
  6
Continuous
 62
               7
100
AcDbLine
 10
429.84636750000004
 20
19.971097999999984
 30
0.0
 11
429.84636750000004
 21
10.971097999999984
 31
0.0
  0
LINE
  5
D8
100
AcDbEntity
  8
0
370
              15
  6
Continuous
 62
               7
100
AcDbLine
 10
429.84636750000004
 20
10.971097999999984
 30
0.0
 11
316.84636750000004
 21
10.971097999999984
 31
0.0
  0
LINE
  5
D9
100
AcDbEntity
  8
0
370
              30
  6
Continuous
 62
               7
100
AcDbLine
 10
299.96257750000007
 20
11.902367999999996
 30
0.0
 11
299.96257750000007
 21
0.0652079999999842
 31
0.0
  0
LINE
  5
DA
100
AcDbEntity
  8
0
370
              15
  6
Continuous
 62
               7
100
AcDbLine
 10
-400.20684249999999
 20
378.16914800000001
 30
0.0
 11
-400.20684249999999
 21
328.84764800000005
 31
0.0
  0
LINE
  5
DB
100
AcDbEntity
  8
0
370
              15
  6
Continuous
 62
               7
100
AcDbLine
 10
-400.20684249999999
 20
328.84764800000005
 30
0.0
 11
-332.28824250000002
 21
328.84764800000005
 31
0.0
  0
LINE
  5
DC
100
AcDbEntity
  8
0
370
              15
  6
Continuous
 62
               7
100
AcDbLine
 10
-331.67571249999997
 20
328.99349799999999
 30
0.0
 11
-331.67571249999997
 21
408.04881800000004
 31
0.0
  0
LINE
  5
DD
100
AcDbEntity
  8
0
370
              30
  6
Continuous
 62
               7
100
AcDbLine
 10
-538.27295250000009
 20
47.966587999999987
 30
0.0
 11
-535.3289125
 21
47.966587999999987
 31
0.0
  0
LINE
  5
DE
100
AcDbEntity
  8
0
370
              15
  6
Continuous
 62
               7
100
AcDbLine
 10
-299.73584249999999
 20
310.74620800000002
 30
0.0
 11
300.26415750000007
 21
310.74620800000002
 31
0.0
  0
MTEXT
  5
DF
100
AcDbEntity
  8
2
 62
               7
100
AcDbMText
 10
223.33419750000002
 20
348.24953800000003
 30
0.0
 40
8.1777759999999997
 41
0.0
 71
               1
 72
               1
  1
C
  7
Arial
 73
               1
 44
1.0
  0
MTEXT
  5
E0
100
AcDbEntity
  8
2
 62
               7
100
AcDbMText
 10
231.33419750000002
 20
348.24953800000003
 30
0.0
 40
8.1777759999999997
 41
0.0
 71
               1
 72
               1
  1
Y
  7
Arial
 73
               1
 44
1.0
  0
MTEXT
  5
E1
100
AcDbEntity
  8
2
 62
               7
100
AcDbMText
 10
239.33419750000002
 20
348.24953800000003
 30
0.0
 40
8.1777759999999997
 41
0.0
 71
               1
 72
               1
  1
C
  7
Arial
 73
               1
 44
1.0
  0
MTEXT
  5
E2
100
AcDbEntity
  8
2
 62
               7
100
AcDbMText
 10
223.33419750000002
 20
338.24953800000003
 30
0.0
 40
8.1777759999999997
 41
0.0
 71
               1
 72
               1
  1
L
  7
Arial
 73
               1
 44
1.0
  0
MTEXT
  5
E3
100
AcDbEntity
  8
2
 62
               7
100
AcDbMText
 10
231.33419750000002
 20
338.24953800000003
 30
0.0
 40
8.1777759999999997
 41
0.0
 71
               1
 72
               1
  1
A
  7
Arial
 73
               1
 44
1.0
  0
MTEXT
  5
E4
100
AcDbEntity
  8
2
 62
               7
100
AcDbMText
 10
239.33419750000002
 20
338.24953800000003
 30
0.0
 40
8.1777759999999997
 41
0.0
 71
               1
 72
               1
  1
S
  7
Arial
 73
               1
 44
1.0
  0
MTEXT
  5
E5
100
AcDbEntity
  8
2
 62
               7
100
AcDbMText
 10
247.33419749999999
 20
338.24953800000003
 30
0.0
 40
8.1777759999999997
 41
0.0
 71
               1
 72
               1
  1
T
  7
Arial
 73
               1
 44
1.0
  0
MTEXT
  5
E6
100
AcDbEntity
  8
2
 62
               7
100
AcDbMText
 10
260.06500750000004
 20
338.24953800000003
 30
0.0
 40
8.1777759999999997
 41
0.0
 71
               1
 72
               1
  1
W
  7
Arial
 73
               1
 44
1.0
  0
MTEXT
  5
E7
100
AcDbEntity
  8
2
 62
               7
100
AcDbMText
 10
271.33416750000004
 20
338.24953800000003
 30
0.0
 40
8.1777759999999997
 41
0.0
 71
               1
 72
               1
  1
O
  7
Arial
 73
               1
 44
1.0
  0
MTEXT
  5
E8
100
AcDbEntity
  8
2
 62
               7
100
AcDbMText
 10
279.33416750000004
 20
338.24953800000003
 30
0.0
 40
8.1777759999999997
 41
0.0
 71
               1
 72
               1
  1
R
  7
Arial
 73
               1
 44
1.0
  0
MTEXT
  5
E9
100
AcDbEntity
  8
2
 62
               7
100
AcDbMText
 10
287.33416750000004
 20
338.24953800000003
 30
0.0
 40
8.1777759999999997
 41
0.0
 71
               1
 72
               1
  1
K
  7
Arial
 73
               1
 44
1.0
  0
MTEXT
  5
EA
100
AcDbEntity
  8
2
 62
               7
100
AcDbMText
 10
295.33416750000004
 20
338.24953800000003
 30
0.0
 40
8.1777759999999997
 41
0.0
 71
               1
 72
               1
  1
I
  7
Arial
 73
               1
 44
1.0
  0
MTEXT
  5
EB
100
AcDbEntity
  8
2
 62
               7
100
AcDbMText
 10
303.33416750000004
 20
338.24953800000003
 30
0.0
 40
8.1777759999999997
 41
0.0
 71
               1
 72
               1
  1
N
  7
Arial
 73
               1
 44
1.0
  0
MTEXT
  5
EC
100
AcDbEntity
  8
2
 62
               7
100
AcDbMText
 10
311.33416750000004
 20
338.24953800000003
 30
0.0
 40
8.1777759999999997
 41
0.0
 71
               1
 72
               1
  1
G
  7
Arial
 73
               1
 44
1.0
  0
MTEXT
  5
ED
100
AcDbEntity
  8
2
 62
               7
100
AcDbMText
 10
223.33419750000002
 20
328.24953800000003
 30
0.0
 40
8.1777759999999997
 41
0.0
 71
               1
 72
               1
  1
L
  7
Arial
 73
               1
 44
1.0
  0
MTEXT
  5
EE
100
AcDbEntity
  8
2
 62
               7
100
AcDbMText
 10
231.33419750000002
 20
328.24953800000003
 30
0.0
 40
8.1777759999999997
 41
0.0
 71
               1
 72
               1
  1
I
  7
Arial
 73
               1
 44
1.0
  0
MTEXT
  5
EF
100
AcDbEntity
  8
2
 62
               7
100
AcDbMText
 10
239.33419750000002
 20
328.24953800000003
 30
0.0
 40
8.1777759999999997
 41
0.0
 71
               1
 72
               1
  1
N
  7
Arial
 73
               1
 44
1.0
  0
MTEXT
  5
F0
100
AcDbEntity
  8
2
 62
               7
100
AcDbMText
 10
247.33419749999999
 20
328.24953800000003
 30
0.0
 40
8.1777759999999997
 41
0.0
 71
               1
 72
               1
  1
E
  7
Arial
 73
               1
 44
1.0
  0
MTEXT
  5
F1
100
AcDbEntity
  8
2
 62
               7
100
AcDbMText
 10
263.33416750000004
 20
328.24953800000003
 30
0.0
 40
8.1777759999999997
 41
0.0
 71
               1
 72
               1
  1
S
  7
Arial
 73
               1
 44
1.0
  0
MTEXT
  5
F2
100
AcDbEntity
  8
2
 62
               7
100
AcDbMText
 10
271.33416750000004
 20
328.24953800000003
 30
0.0
 40
8.1777759999999997
 41
0.0
 71
               1
 72
               1
  1
E
  7
Arial
 73
               1
 44
1.0
  0
MTEXT
  5
F3
100
AcDbEntity
  8
2
 62
               7
100
AcDbMText
 10
279.33416750000004
 20
328.24953800000003
 30
0.0
 40
8.1777759999999997
 41
0.0
 71
               1
 72
               1
  1
T
  7
Arial
 73
               1
 44
1.0
  0
MTEXT
  5
F4
100
AcDbEntity
  8
2
 62
               7
100
AcDbMText
 10
-529.05871250000007
 20
177.741398
 30
0.0
 40
6.1333280000000006
 41
0.0
 71
               1
 72
               1
  1
P
  7
Arial
 73
               1
 44
1.0
  0
MTEXT
  5
F5
100
AcDbEntity
  8
2
 62
               7
100
AcDbMText
 10
-523.05871250000007
 20
177.741398
 30
0.0
 40
6.1333280000000006
 41
0.0
 71
               1
 72
               1
  1
A
  7
Arial
 73
               1
 44
1.0
  0
MTEXT
  5
F6
100
AcDbEntity
  8
2
 62
               7
100
AcDbMText
 10
-517.05871250000007
 20
177.741398
 30
0.0
 40
6.1333280000000006
 41
0.0
 71
               1
 72
               1
  1
T
  7
Arial
 73
               1
 44
1.0
  0
MTEXT
  5
F7
100
AcDbEntity
  8
2
 62
               7
100
AcDbMText
 10
-511.05871250000001
 20
177.741398
 30
0.0
 40
6.1333280000000006
 41
0.0
 71
               1
 72
               1
  1
C
  7
Arial
 73
               1
 44
1.0
  0
MTEXT
  5
F8
100
AcDbEntity
  8
2
 62
               7
100
AcDbMText
 10
-505.05871250000001
 20
177.741398
 30
0.0
 40
6.1333280000000006
 41
0.0
 71
               1
 72
               1
  1
H
  7
Arial
 73
               1
 44
1.0
  0
MTEXT
  5
F9
100
AcDbEntity
  8
2
 62
               7
100
AcDbMText
 10
-493.05871249999996
 20
177.741398
 30
0.0
 40
6.1333280000000006
 41
0.0
 71
               1
 72
               1
  1
P
  7
Arial
 73
               1
 44
1.0
  0
MTEXT
  5
FA
100
AcDbEntity
  8
2
 62
               7
100
AcDbMText
 10
-487.05871249999996
 20
177.741398
 30
0.0
 40
6.1333280000000006
 41
0.0
 71
               1
 72
               1
  1
A
  7
Arial
 73
               1
 44
1.0
  0
MTEXT
  5
FB
100
AcDbEntity
  8
2
 62
               7
100
AcDbMText
 10
-481.05871250000001
 20
177.741398
 30
0.0
 40
6.1333280000000006
 41
0.0
 71
               1
 72
               1
  1
N
  7
Arial
 73
               1
 44
1.0
  0
MTEXT
  5
FC
100
AcDbEntity
  8
2
 62
               7
100
AcDbMText
 10
-475.05871250000001
 20
177.741398
 30
0.0
 40
6.1333280000000006
 41
0.0
 71
               1
 72
               1
  1
E
  7
Arial
 73
               1
 44
1.0
  0
MTEXT
  5
FD
100
AcDbEntity
  8
2
 62
               7
100
AcDbMText
 10
-469.05871250000001
 20
177.741398
 30
0.0
 40
6.1333280000000006
 41
0.0
 71
               1
 72
               1
  1
L
  7
Arial
 73
               1
 44
1.0
  0
MTEXT
  5
FE
100
AcDbEntity
  8
2
 62
               7
100
AcDbMText
 10
-529.05871250000007
 20
162.741398
 30
0.0
 40
6.1333280000000006
 41
0.0
 71
               1
 72
               1
  1
G
  7
Arial
 73
               1
 44
1.0
  0
MTEXT
  5
FF
100
AcDbEntity
  8
2
 62
               7
100
AcDbMText
 10
-523.05871250000007
 20
162.741398
 30
0.0
 40
6.1333280000000006
 41
0.0
 71
               1
 72
               1
  1
A
  7
Arial
 73
               1
 44
1.0
  0
MTEXT
  5
100
100
AcDbEntity
  8
2
 62
               7
100
AcDbMText
 10
-517.05871250000007
 20
162.741398
 30
0.0
 40
6.1333280000000006
 41
0.0
 71
               1
 72
               1
  1
L
  7
Arial
 73
               1
 44
1.0
  0
MTEXT
  5
101
100
AcDbEntity
  8
2
 62
               7
100
AcDbMText
 10
-511.05871250000001
 20
162.741398
 30
0.0
 40
6.1333280000000006
 41
0.0
 71
               1
 72
               1
  1
L
  7
Arial
 73
               1
 44
1.0
  0
MTEXT
  5
102
100
AcDbEntity
  8
2
 62
               7
100
AcDbMText
 10
-505.05871250000001
 20
162.741398
 30
0.0
 40
6.1333280000000006
 41
0.0
 71
               1
 72
               1
  1
E
  7
Arial
 73
               1
 44
1.0
  0
MTEXT
  5
103
100
AcDbEntity
  8
2
 62
               7
100
AcDbMText
 10
-499.05871250000001
 20
162.741398
 30
0.0
 40
6.1333280000000006
 41
0.0
 71
               1
 72
               1
  1
R
  7
Arial
 73
               1
 44
1.0
  0
MTEXT
  5
104
100
AcDbEntity
  8
2
 62
               7
100
AcDbMText
 10
-493.05871249999996
 20
162.741398
 30
0.0
 40
6.1333280000000006
 41
0.0
 71
               1
 72
               1
  1
Y
  7
Arial
 73
               1
 44
1.0
  0
MTEXT
  5
105
100
AcDbEntity
  8
2
 62
               7
100
AcDbMText
 10
-529.05871250000007
 20
147.741398
 30
0.0
 40
6.1333280000000006
 41
0.0
 71
               1
 72
               1
  1
C
  7
Arial
 73
               1
 44
1.0
  0
MTEXT
  5
106
100
AcDbEntity
  8
2
 62
               7
100
AcDbMText
 10
-523.05871250000007
 20
147.741398
 30
0.0
 40
6.1333280000000006
 41
0.0
 71
               1
 72
               1
  1
L
  7
Arial
 73
               1
 44
1.0
  0
MTEXT
  5
107
100
AcDbEntity
  8
2
 62
               7
100
AcDbMText
 10
-517.05871250000007
 20
147.741398
 30
0.0
 40
6.1333280000000006
 41
0.0
 71
               1
 72
               1
  1
E
  7
Arial
 73
               1
 44
1.0
  0
MTEXT
  5
108
100
AcDbEntity
  8
2
 62
               7
100
AcDbMText
 10
-511.05871250000001
 20
147.741398
 30
0.0
 40
6.1333280000000006
 41
0.0
 71
               1
 72
               1
  1
A
  7
Arial
 73
               1
 44
1.0
  0
MTEXT
  5
109
100
AcDbEntity
  8
2
 62
               7
100
AcDbMText
 10
-505.05871250000001
 20
147.741398
 30
0.0
 40
6.1333280000000006
 41
0.0
 71
               1
 72
               1
  1
R
  7
Arial
 73
               1
 44
1.0
  0
MTEXT
  5
10A
100
AcDbEntity
  8
2
 62
               7
100
AcDbMText
 10
-499.05871250000001
 20
147.741398
 30
0.0
 40
6.1333280000000006
 41
0.0
 71
               1
 72
               1
  1
A
  7
Arial
 73
               1
 44
1.0
  0
MTEXT
  5
10B
100
AcDbEntity
  8
2
 62
               7
100
AcDbMText
 10
-493.05871249999996
 20
147.741398
 30
0.0
 40
6.1333280000000006
 41
0.0
 71
               1
 72
               1
  1
N
  7
Arial
 73
               1
 44
1.0
  0
MTEXT
  5
10C
100
AcDbEntity
  8
2
 62
               7
100
AcDbMText
 10
-487.05871249999996
 20
147.741398
 30
0.0
 40
6.1333280000000006
 41
0.0
 71
               1
 72
               1
  1
C
  7
Arial
 73
               1
 44
1.0
  0
MTEXT
  5
10D
100
AcDbEntity
  8
2
 62
               7
100
AcDbMText
 10
-481.05871250000001
 20
147.741398
 30
0.0
 40
6.1333280000000006
 41
0.0
 71
               1
 72
               1
  1
E
  7
Arial
 73
               1
 44
1.0
  0
MTEXT
  5
10E
100
AcDbEntity
  8
2
 62
               7
100
AcDbMText
 10
-529.05871250000007
 20
132.741398
 30
0.0
 40
6.1333280000000006
 41
0.0
 71
               1
 72
               1
  1
1
  7
Arial
 73
               1
 44
1.0
  0
MTEXT
  5
10F
100
AcDbEntity
  8
2
 62
               7
100
AcDbMText
 10
-523.05871250000007
 20
132.741398
 30
0.0
 40
6.1333280000000006
 41
0.0
 71
               1
 72
               1
  1
7
  7
Arial
 73
               1
 44
1.0
  0
MTEXT
  5
110
100
AcDbEntity
  8
2
 62
               7
100
AcDbMText
 10
-517.05871250000007
 20
132.741398
 30
0.0
 40
6.1333280000000006
 41
0.0
 71
               1
 72
               1
  1
'
  7
Arial
 73
               1
 44
1.0
  0
MTEXT
  5
111
100
AcDbEntity
  8
2
 62
               7
100
AcDbMText
 10
-511.05871250000001
 20
132.741398
 30
0.0
 40
6.1333280000000006
 41
0.0
 71
               1
 72
               1
  1
-
  7
Arial
 73
               1
 44
1.0
  0
MTEXT
  5
112
100
AcDbEntity
  8
2
 62
               7
100
AcDbMText
 10
-505.05871250000001
 20
132.741398
 30
0.0
 40
6.1333280000000006
 41
0.0
 71
               1
 72
               1
  1
1
  7
Arial
 73
               1
 44
1.0
  0
MTEXT
  5
113
100
AcDbEntity
  8
2
 62
               7
100
AcDbMText
 10
-499.05871250000001
 20
132.741398
 30
0.0
 40
6.1333280000000006
 41
0.0
 71
               1
 72
               1
  1
0
  7
Arial
 73
               1
 44
1.0
  0
MTEXT
  5
114
100
AcDbEntity
  8
2
 62
               7
100
AcDbMText
 10
-493.05871249999996
 20
132.741398
 30
0.0
 40
6.1333280000000006
 41
0.0
 71
               1
 72
               1
  1
"
  7
Arial
 73
               1
 44
1.0
  0
MTEXT
  5
115
100
AcDbEntity
  8
2
 62
               7
100
AcDbMText
 10
-522.48596250000003
 20
62.329057999999989
 30
0.0
 40
6.1333280000000006
 41
0.0
 71
               1
 72
               1
  1
T
  7
Arial
 73
               1
 44
1.0
  0
MTEXT
  5
116
100
AcDbEntity
  8
2
 62
               7
100
AcDbMText
 10
-516.48596250000003
 20
62.329057999999989
 30
0.0
 40
6.1333280000000006
 41
0.0
 71
               1
 72
               1
  1
O
  7
Arial
 73
               1
 44
1.0
  0
MTEXT
  5
117
100
AcDbEntity
  8
2
 62
               7
100
AcDbMText
 10
-504.48596249999997
 20
62.329057999999989
 30
0.0
 40
6.1333280000000006
 41
0.0
 71
               1
 72
               1
  1
L
  7
Arial
 73
               1
 44
1.0
  0
MTEXT
  5
118
100
AcDbEntity
  8
2
 62
               7
100
AcDbMText
 10
-498.48596249999997
 20
62.329057999999989
 30
0.0
 40
6.1333280000000006
 41
0.0
 71
               1
 72
               1
  1
O
  7
Arial
 73
               1
 44
1.0
  0
MTEXT
  5
119
100
AcDbEntity
  8
2
 62
               7
100
AcDbMText
 10
-492.48596250000003
 20
62.329057999999989
 30
0.0
 40
6.1333280000000006
 41
0.0
 71
               1
 72
               1
  1
A
  7
Arial
 73
               1
 44
1.0
  0
MTEXT
  5
11A
100
AcDbEntity
  8
2
 62
               7
100
AcDbMText
 10
-486.48596250000003
 20
62.329057999999989
 30
0.0
 40
6.1333280000000006
 41
0.0
 71
               1
 72
               1
  1
D
  7
Arial
 73
               1
 44
1.0
  0
MTEXT
  5
11B
100
AcDbEntity
  8
2
 62
               7
100
AcDbMText
 10
-480.48596250000003
 20
62.329057999999989
 30
0.0
 40
6.1333280000000006
 41
0.0
 71
               1
 72
               1
  1
I
  7
Arial
 73
               1
 44
1.0
  0
MTEXT
  5
11C
100
AcDbEntity
  8
2
 62
               7
100
AcDbMText
 10
-474.48596249999997
 20
62.329057999999989
 30
0.0
 40
6.1333280000000006
 41
0.0
 71
               1
 72
               1
  1
N
  7
Arial
 73
               1
 44
1.0
  0
MTEXT
  5
11D
100
AcDbEntity
  8
2
 62
               7
100
AcDbMText
 10
-468.48596249999997
 20
62.329057999999989
 30
0.0
 40
6.1333280000000006
 41
0.0
 71
               1
 72
               1
  1
G
  7
Arial
 73
               1
 44
1.0
  0
MTEXT
  5
11E
100
AcDbEntity
  8
2
 62
               7
100
AcDbMText
 10
-522.48596250000003
 20
47.329058000000003
 30
0.0
 40
6.1333280000000006
 41
0.0
 71
               1
 72
               1
  1
D
  7
Arial
 73
               1
 44
1.0
  0
MTEXT
  5
11F
100
AcDbEntity
  8
2
 62
               7
100
AcDbMText
 10
-516.48596250000003
 20
47.329058000000003
 30
0.0
 40
6.1333280000000006
 41
0.0
 71
               1
 72
               1
  1
O
  7
Arial
 73
               1
 44
1.0
  0
MTEXT
  5
120
100
AcDbEntity
  8
2
 62
               7
100
AcDbMText
 10
-510.48596250000003
 20
47.329058000000003
 30
0.0
 40
6.1333280000000006
 41
0.0
 71
               1
 72
               1
  1
C
  7
Arial
 73
               1
 44
1.0
  0
MTEXT
  5
121
100
AcDbEntity
  8
2
 62
               7
100
AcDbMText
 10
-504.48596249999997
 20
47.329058000000003
 30
0.0
 40
6.1333280000000006
 41
0.0
 71
               1
 72
               1
  1
K
  7
Arial
 73
               1
 44
1.0
  0
MTEXT
  5
122
100
AcDbEntity
  8
2
 62
               7
100
AcDbMText
 10
-550.7559225
 20
-50.327512000000013
 30
0.0
 40
6.1333280000000006
 41
0.0
 71
               1
 72
               1
  1
T
  7
Arial
 73
               1
 44
1.0
  0
MTEXT
  5
123
100
AcDbEntity
  8
2
 62
               7
100
AcDbMText
 10
-544.7559225
 20
-50.327512000000013
 30
0.0
 40
6.1333280000000006
 41
0.0
 71
               1
 72
               1
  1
O
  7
Arial
 73
               1
 44
1.0
  0
MTEXT
  5
124
100
AcDbEntity
  8
2
 62
               7
100
AcDbMText
 10
-532.75592250000011
 20
-50.327512000000013
 30
0.0
 40
6.1333280000000006
 41
0.0
 71
               1
 72
               1
  1
D
  7
Arial
 73
               1
 44
1.0
  0
MTEXT
  5
125
100
AcDbEntity
  8
2
 62
               7
100
AcDbMText
 10
-526.75592250000011
 20
-50.327512000000013
 30
0.0
 40
6.1333280000000006
 41
0.0
 71
               1
 72
               1
  1
R
  7
Arial
 73
               1
 44
1.0
  0
MTEXT
  5
126
100
AcDbEntity
  8
2
 62
               7
100
AcDbMText
 10
-520.75592250000011
 20
-50.327512000000013
 30
0.0
 40
6.1333280000000006
 41
0.0
 71
               1
 72
               1
  1
E
  7
Arial
 73
               1
 44
1.0
  0
MTEXT
  5
127
100
AcDbEntity
  8
2
 62
               7
100
AcDbMText
 10
-514.7559225
 20
-50.327512000000013
 30
0.0
 40
6.1333280000000006
 41
0.0
 71
               1
 72
               1
  1
S
  7
Arial
 73
               1
 44
1.0
  0
MTEXT
  5
128
100
AcDbEntity
  8
2
 62
               7
100
AcDbMText
 10
-508.7559225
 20
-50.327512000000013
 30
0.0
 40
6.1333280000000006
 41
0.0
 71
               1
 72
               1
  1
S
  7
Arial
 73
               1
 44
1.0
  0
MTEXT
  5
129
100
AcDbEntity
  8
2
 62
               7
100
AcDbMText
 10
-502.7559225
 20
-50.327512000000013
 30
0.0
 40
6.1333280000000006
 41
0.0
 71
               1
 72
               1
  1
I
  7
Arial
 73
               1
 44
1.0
  0
MTEXT
  5
12A
100
AcDbEntity
  8
2
 62
               7
100
AcDbMText
 10
-496.7559225
 20
-50.327512000000013
 30
0.0
 40
6.1333280000000006
 41
0.0
 71
               1
 72
               1
  1
N
  7
Arial
 73
               1
 44
1.0
  0
MTEXT
  5
12B
100
AcDbEntity
  8
2
 62
               7
100
AcDbMText
 10
-490.75592250000005
 20
-50.327512000000013
 30
0.0
 40
6.1333280000000006
 41
0.0
 71
               1
 72
               1
  1
G
  7
Arial
 73
               1
 44
1.0
  0
MTEXT
  5
12C
100
AcDbEntity
  8
2
 62
               7
100
AcDbMText
 10
-550.7559225
 20
-65.327512000000013
 30
0.0
 40
6.1333280000000006
 41
0.0
 71
               1
 72
               1
  1
R
  7
Arial
 73
               1
 44
1.0
  0
MTEXT
  5
12D
100
AcDbEntity
  8
2
 62
               7
100
AcDbMText
 10
-544.7559225
 20
-65.327512000000013
 30
0.0
 40
6.1333280000000006
 41
0.0
 71
               1
 72
               1
  1
O
  7
Arial
 73
               1
 44
1.0
  0
MTEXT
  5
12E
100
AcDbEntity
  8
2
 62
               7
100
AcDbMText
 10
-538.7559225
 20
-65.327512000000013
 30
0.0
 40
6.1333280000000006
 41
0.0
 71
               1
 72
               1
  1
O
  7
Arial
 73
               1
 44
1.0
  0
MTEXT
  5
12F
100
AcDbEntity
  8
2
 62
               7
100
AcDbMText
 10
-532.75592250000011
 20
-65.327512000000013
 30
0.0
 40
6.1333280000000006
 41
0.0
 71
               1
 72
               1
  1
M
  7
Arial
 73
               1
 44
1.0
  0
MTEXT
  5
130
100
AcDbEntity
  8
2
 62
               7
100
AcDbMText
 10
-526.75592250000011
 20
-65.327512000000013
 30
0.0
 40
6.1333280000000006
 41
0.0
 71
               1
 72
               1
  1
S
  7
Arial
 73
               1
 44
1.0
  0
MTEXT
  5
131
100
AcDbEntity
  8
2
 62
               7
100
AcDbMText
 10
-432.31576250000001
 20
-38.498182000000014
 30
0.0
 40
6.1333280000000006
 41
0.0
 71
               1
 72
               1
  1
T
  7
Arial
 73
               1
 44
1.0
  0
MTEXT
  5
132
100
AcDbEntity
  8
2
 62
               7
100
AcDbMText
 10
-426.31576250000001
 20
-38.498182000000014
 30
0.0
 40
6.1333280000000006
 41
0.0
 71
               1
 72
               1
  1
O
  7
Arial
 73
               1
 44
1.0
  0
MTEXT
  5
133
100
AcDbEntity
  8
2
 62
               7
100
AcDbMText
 10
-414.31576249999995
 20
-38.498182000000014
 30
0.0
 40
6.1333280000000006
 41
0.0
 71
               1
 72
               1
  1
S
  7
Arial
 73
               1
 44
1.0
  0
MTEXT
  5
134
100
AcDbEntity
  8
2
 62
               7
100
AcDbMText
 10
-408.31576250000001
 20
-38.498182000000014
 30
0.0
 40
6.1333280000000006
 41
0.0
 71
               1
 72
               1
  1
W
  7
Arial
 73
               1
 44
1.0
  0
MTEXT
  5
135
100
AcDbEntity
  8
2
 62
               7
100
AcDbMText
 10
-402.31576250000001
 20
-38.498182000000014
 30
0.0
 40
6.1333280000000006
 41
0.0
 71
               1
 72
               1
  1
I
  7
Arial
 73
               1
 44
1.0
  0
MTEXT
  5
136
100
AcDbEntity
  8
2
 62
               7
100
AcDbMText
 10
-396.31576250000001
 20
-38.498182000000014
 30
0.0
 40
6.1333280000000006
 41
0.0
 71
               1
 72
               1
  1
N
  7
Arial
 73
               1
 44
1.0
  0
MTEXT
  5
137
100
AcDbEntity
  8
2
 62
               7
100
AcDbMText
 10
-390.31576250000001
 20
-38.498182000000014
 30
0.0
 40
6.1333280000000006
 41
0.0
 71
               1
 72
               1
  1
G
  7
Arial
 73
               1
 44
1.0
  0
MTEXT
  5
138
100
AcDbEntity
  8
2
 62
               7
100
AcDbMText
 10
-378.31576249999995
 20
-38.498182000000014
 30
0.0
 40
6.1333280000000006
 41
0.0
 71
               1
 72
               1
  1
P
  7
Arial
 73
               1
 44
1.0
  0
MTEXT
  5
139
100
AcDbEntity
  8
2
 62
               7
100
AcDbMText
 10
-372.31576250000001
 20
-38.498182000000014
 30
0.0
 40
6.1333280000000006
 41
0.0
 71
               1
 72
               1
  1
A
  7
Arial
 73
               1
 44
1.0
  0
MTEXT
  5
13A
100
AcDbEntity
  8
2
 62
               7
100
AcDbMText
 10
-366.31576250000001
 20
-38.498182000000014
 30
0.0
 40
6.1333280000000006
 41
0.0
 71
               1
 72
               1
  1
N
  7
Arial
 73
               1
 44
1.0
  0
MTEXT
  5
13B
100
AcDbEntity
  8
2
 62
               7
100
AcDbMText
 10
-360.31576250000001
 20
-38.498182000000014
 30
0.0
 40
6.1333280000000006
 41
0.0
 71
               1
 72
               1
  1
E
  7
Arial
 73
               1
 44
1.0
  0
MTEXT
  5
13C
100
AcDbEntity
  8
2
 62
               7
100
AcDbMText
 10
-354.31576249999995
 20
-38.498182000000014
 30
0.0
 40
6.1333280000000006
 41
0.0
 71
               1
 72
               1
  1
L
  7
Arial
 73
               1
 44
1.0
  0
MTEXT
  5
13D
100
AcDbEntity
  8
2
 62
               7
100
AcDbMText
 10
-424.09979249999998
 20
-80.773762000000005
 30
0.0
 40
6.1333280000000006
 41
0.0
 71
               1
 72
               1
  1
S
  7
Arial
 73
               1
 44
1.0
  0
MTEXT
  5
13E
100
AcDbEntity
  8
2
 62
               7
100
AcDbMText
 10
-418.09979249999998
 20
-80.773762000000005
 30
0.0
 40
6.1333280000000006
 41
0.0
 71
               1
 72
               1
  1
W
  7
Arial
 73
               1
 44
1.0
  0
MTEXT
  5
13F
100
AcDbEntity
  8
2
 62
               7
100
AcDbMText
 10
-412.09979249999998
 20
-80.773762000000005
 30
0.0
 40
6.1333280000000006
 41
0.0
 71
               1
 72
               1
  1
I
  7
Arial
 73
               1
 44
1.0
  0
MTEXT
  5
140
100
AcDbEntity
  8
2
 62
               7
100
AcDbMText
 10
-406.09979249999998
 20
-80.773762000000005
 30
0.0
 40
6.1333280000000006
 41
0.0
 71
               1
 72
               1
  1
N
  7
Arial
 73
               1
 44
1.0
  0
MTEXT
  5
141
100
AcDbEntity
  8
2
 62
               7
100
AcDbMText
 10
-400.09979250000004
 20
-80.773762000000005
 30
0.0
 40
6.1333280000000006
 41
0.0
 71
               1
 72
               1
  1
G
  7
Arial
 73
               1
 44
1.0
  0
MTEXT
  5
142
100
AcDbEntity
  8
2
 62
               7
100
AcDbMText
 10
-388.09979249999998
 20
-80.773762000000005
 30
0.0
 40
6.1333280000000006
 41
0.0
 71
               1
 72
               1
  1
P
  7
Arial
 73
               1
 44
1.0
  0
MTEXT
  5
143
100
AcDbEntity
  8
2
 62
               7
100
AcDbMText
 10
-382.09979249999998
 20
-80.773762000000005
 30
0.0
 40
6.1333280000000006
 41
0.0
 71
               1
 72
               1
  1
A
  7
Arial
 73
               1
 44
1.0
  0
MTEXT
  5
144
100
AcDbEntity
  8
2
 62
               7
100
AcDbMText
 10
-376.09979249999998
 20
-80.773762000000005
 30
0.0
 40
6.1333280000000006
 41
0.0
 71
               1
 72
               1
  1
N
  7
Arial
 73
               1
 44
1.0
  0
MTEXT
  5
145
100
AcDbEntity
  8
2
 62
               7
100
AcDbMText
 10
-370.09979250000004
 20
-80.773762000000005
 30
0.0
 40
6.1333280000000006
 41
0.0
 71
               1
 72
               1
  1
E
  7
Arial
 73
               1
 44
1.0
  0
MTEXT
  5
146
100
AcDbEntity
  8
2
 62
               7
100
AcDbMText
 10
-364.09979249999998
 20
-80.773762000000005
 30
0.0
 40
6.1333280000000006
 41
0.0
 71
               1
 72
               1
  1
L
  7
Arial
 73
               1
 44
1.0
  0
MTEXT
  5
147
100
AcDbEntity
  8
2
 62
               7
100
AcDbMText
 10
-424.09979249999998
 20
-95.773762000000005
 30
0.0
 40
6.1333280000000006
 41
0.0
 71
               1
 72
               1
  1
R
  7
Arial
 73
               1
 44
1.0
  0
MTEXT
  5
148
100
AcDbEntity
  8
2
 62
               7
100
AcDbMText
 10
-418.09979249999998
 20
-95.773762000000005
 30
0.0
 40
6.1333280000000006
 41
0.0
 71
               1
 72
               1
  1
O
  7
Arial
 73
               1
 44
1.0
  0
MTEXT
  5
149
100
AcDbEntity
  8
2
 62
               7
100
AcDbMText
 10
-412.09979249999998
 20
-95.773762000000005
 30
0.0
 40
6.1333280000000006
 41
0.0
 71
               1
 72
               1
  1
O
  7
Arial
 73
               1
 44
1.0
  0
MTEXT
  5
14A
100
AcDbEntity
  8
2
 62
               7
100
AcDbMText
 10
-406.09979249999998
 20
-95.773762000000005
 30
0.0
 40
6.1333280000000006
 41
0.0
 71
               1
 72
               1
  1
M
  7
Arial
 73
               1
 44
1.0
  0
MTEXT
  5
14B
100
AcDbEntity
  8
2
 62
               7
100
AcDbMText
 10
-430.26178249999998
 20
-53.294632000000007
 30
0.0
 40
6.1333280000000006
 41
0.0
 71
               1
 72
               1
  1
R
  7
Arial
 73
               1
 44
1.0
  0
MTEXT
  5
14C
100
AcDbEntity
  8
2
 62
               7
100
AcDbMText
 10
-424.26178249999998
 20
-53.294632000000007
 30
0.0
 40
6.1333280000000006
 41
0.0
 71
               1
 72
               1
  1
O
  7
Arial
 73
               1
 44
1.0
  0
MTEXT
  5
14D
100
AcDbEntity
  8
2
 62
               7
100
AcDbMText
 10
-418.26178249999998
 20
-53.294632000000007
 30
0.0
 40
6.1333280000000006
 41
0.0
 71
               1
 72
               1
  1
O
  7
Arial
 73
               1
 44
1.0
  0
MTEXT
  5
14E
100
AcDbEntity
  8
2
 62
               7
100
AcDbMText
 10
-412.26178250000004
 20
-53.294632000000007
 30
0.0
 40
6.1333280000000006
 41
0.0
 71
               1
 72
               1
  1
M
  7
Arial
 73
               1
 44
1.0
  0
MTEXT
  5
14F
100
AcDbEntity
  8
2
 62
               7
100
AcDbMText
 10
-455.0833725
 20
1.2408580000000029
 30
0.0
 40
6.1333280000000006
 41
0.0
 71
               1
 72
               1
  1
S
  7
Arial
 73
               1
 44
1.0
  0
MTEXT
  5
150
100
AcDbEntity
  8
2
 62
               7
100
AcDbMText
 10
-449.0833725
 20
1.2408580000000029
 30
0.0
 40
6.1333280000000006
 41
0.0
 71
               1
 72
               1
  1
T
  7
Arial
 73
               1
 44
1.0
  0
MTEXT
  5
151
100
AcDbEntity
  8
2
 62
               7
100
AcDbMText
 10
-443.0833725
 20
1.2408580000000029
 30
0.0
 40
6.1333280000000006
 41
0.0
 71
               1
 72
               1
  1
A
  7
Arial
 73
               1
 44
1.0
  0
MTEXT
  5
152
100
AcDbEntity
  8
2
 62
               7
100
AcDbMText
 10
-437.08337249999994
 20
1.2408580000000029
 30
0.0
 40
6.1333280000000006
 41
0.0
 71
               1
 72
               1
  1
G
  7
Arial
 73
               1
 44
1.0
  0
MTEXT
  5
153
100
AcDbEntity
  8
2
 62
               7
100
AcDbMText
 10
-431.0833725
 20
1.2408580000000029
 30
0.0
 40
6.1333280000000006
 41
0.0
 71
               1
 72
               1
  1
E
  7
Arial
 73
               1
 44
1.0
  0
MTEXT
  5
154
100
AcDbEntity
  8
2
 62
               7
100
AcDbMText
 10
-419.0833725
 20
1.2408580000000029
 30
0.0
 40
6.1333280000000006
 41
0.0
 71
               1
 72
               1
  1
R
  7
Arial
 73
               1
 44
1.0
  0
MTEXT
  5
155
100
AcDbEntity
  8
2
 62
               7
100
AcDbMText
 10
-413.0833725
 20
1.2408580000000029
 30
0.0
 40
6.1333280000000006
 41
0.0
 71
               1
 72
               1
  1
I
  7
Arial
 73
               1
 44
1.0
  0
MTEXT
  5
156
100
AcDbEntity
  8
2
 62
               7
100
AcDbMText
 10
-407.08337249999994
 20
1.2408580000000029
 30
0.0
 40
6.1333280000000006
 41
0.0
 71
               1
 72
               1
  1
G
  7
Arial
 73
               1
 44
1.0
  0
MTEXT
  5
157
100
AcDbEntity
  8
2
 62
               7
100
AcDbMText
 10
-401.0833725
 20
1.2408580000000029
 30
0.0
 40
6.1333280000000006
 41
0.0
 71
               1
 72
               1
  1
H
  7
Arial
 73
               1
 44
1.0
  0
MTEXT
  5
158
100
AcDbEntity
  8
2
 62
               7
100
AcDbMText
 10
-395.0833725
 20
1.2408580000000029
 30
0.0
 40
6.1333280000000006
 41
0.0
 71
               1
 72
               1
  1
T
  7
Arial
 73
               1
 44
1.0
  0
MTEXT
  5
159
100
AcDbEntity
  8
2
 62
               7
100
AcDbMText
 10
-383.0833725
 20
1.2408580000000029
 30
0.0
 40
6.1333280000000006
 41
0.0
 71
               1
 72
               1
  1
S
  7
Arial
 73
               1
 44
1.0
  0
MTEXT
  5
15A
100
AcDbEntity
  8
2
 62
               7
100
AcDbMText
 10
-377.08337249999994
 20
1.2408580000000029
 30
0.0
 40
6.1333280000000006
 41
0.0
 71
               1
 72
               1
  1
H
  7
Arial
 73
               1
 44
1.0
  0
MTEXT
  5
15B
100
AcDbEntity
  8
2
 62
               7
100
AcDbMText
 10
-371.0833725
 20
1.2408580000000029
 30
0.0
 40
6.1333280000000006
 41
0.0
 71
               1
 72
               1
  1
E
  7
Arial
 73
               1
 44
1.0
  0
MTEXT
  5
15C
100
AcDbEntity
  8
2
 62
               7
100
AcDbMText
 10
-365.0833725
 20
1.2408580000000029
 30
0.0
 40
6.1333280000000006
 41
0.0
 71
               1
 72
               1
  1
L
  7
Arial
 73
               1
 44
1.0
  0
MTEXT
  5
15D
100
AcDbEntity
  8
2
 62
               7
100
AcDbMText
 10
-359.0833725
 20
1.2408580000000029
 30
0.0
 40
6.1333280000000006
 41
0.0
 71
               1
 72
               1
  1
L
  7
Arial
 73
               1
 44
1.0
  0
MTEXT
  5
15E
100
AcDbEntity
  8
2
 62
               7
100
AcDbMText
 10
-347.08337249999994
 20
1.2408580000000029
 30
0.0
 40
6.1333280000000006
 41
0.0
 71
               1
 72
               1
  1
D
  7
Arial
 73
               1
 44
1.0
  0
MTEXT
  5
15F
100
AcDbEntity
  8
2
 62
               7
100
AcDbMText
 10
-341.0833725
 20
1.2408580000000029
 30
0.0
 40
6.1333280000000006
 41
0.0
 71
               1
 72
               1
  1
O
  7
Arial
 73
               1
 44
1.0
  0
MTEXT
  5
160
100
AcDbEntity
  8
2
 62
               7
100
AcDbMText
 10
-335.0833725
 20
1.2408580000000029
 30
0.0
 40
6.1333280000000006
 41
0.0
 71
               1
 72
               1
  1
O
  7
Arial
 73
               1
 44
1.0
  0
MTEXT
  5
161
100
AcDbEntity
  8
2
 62
               7
100
AcDbMText
 10
-329.0833725
 20
1.2408580000000029
 30
0.0
 40
6.1333280000000006
 41
0.0
 71
               1
 72
               1
  1
R
  7
Arial
 73
               1
 44
1.0
  0
MTEXT
  5
162
100
AcDbEntity
  8
2
 62
               7
100
AcDbMText
 10
-451.62326250000001
 20
-9.7507920000000183
 30
0.0
 40
6.1333280000000006
 41
0.0
 71
               1
 72
               1
  1
I
  7
Arial
 73
               1
 44
1.0
  0
MTEXT
  5
163
100
AcDbEntity
  8
2
 62
               7
100
AcDbMText
 10
-445.62326250000001
 20
-9.7507920000000183
 30
0.0
 40
6.1333280000000006
 41
0.0
 71
               1
 72
               1
  1
N
  7
Arial
 73
               1
 44
1.0
  0
MTEXT
  5
164
100
AcDbEntity
  8
2
 62
               7
100
AcDbMText
 10
-433.62326249999995
 20
-9.7507920000000183
 30
0.0
 40
6.1333280000000006
 41
0.0
 71
               1
 72
               1
  1
S
  7
Arial
 73
               1
 44
1.0
  0
MTEXT
  5
165
100
AcDbEntity
  8
2
 62
               7
100
AcDbMText
 10
-427.62326249999995
 20
-9.7507920000000183
 30
0.0
 40
6.1333280000000006
 41
0.0
 71
               1
 72
               1
  1
T
  7
Arial
 73
               1
 44
1.0
  0
MTEXT
  5
166
100
AcDbEntity
  8
2
 62
               7
100
AcDbMText
 10
-421.62326250000001
 20
-9.7507920000000183
 30
0.0
 40
6.1333280000000006
 41
0.0
 71
               1
 72
               1
  1
O
  7
Arial
 73
               1
 44
1.0
  0
MTEXT
  5
167
100
AcDbEntity
  8
2
 62
               7
100
AcDbMText
 10
-415.62326250000001
 20
-9.7507920000000183
 30
0.0
 40
6.1333280000000006
 41
0.0
 71
               1
 72
               1
  1
R
  7
Arial
 73
               1
 44
1.0
  0
MTEXT
  5
168
100
AcDbEntity
  8
2
 62
               7
100
AcDbMText
 10
-409.62326250000001
 20
-9.7507920000000183
 30
0.0
 40
6.1333280000000006
 41
0.0
 71
               1
 72
               1
  1
E
  7
Arial
 73
               1
 44
1.0
  0
MTEXT
  5
169
100
AcDbEntity
  8
2
 62
               7
100
AcDbMText
 10
-403.62326249999995
 20
-9.7507920000000183
 30
0.0
 40
6.1333280000000006
 41
0.0
 71
               1
 72
               1
  1
D
  7
Arial
 73
               1
 44
1.0
  0
MTEXT
  5
16A
100
AcDbEntity
  8
2
 62
               7
100
AcDbMText
 10
-391.62326250000001
 20
-9.7507920000000183
 30
0.0
 40
6.1333280000000006
 41
0.0
 71
               1
 72
               1
  1
P
  7
Arial
 73
               1
 44
1.0
  0
MTEXT
  5
16B
100
AcDbEntity
  8
2
 62
               7
100
AcDbMText
 10
-385.62326250000001
 20
-9.7507920000000183
 30
0.0
 40
6.1333280000000006
 41
0.0
 71
               1
 72
               1
  1
O
  7
Arial
 73
               1
 44
1.0
  0
MTEXT
  5
16C
100
AcDbEntity
  8
2
 62
               7
100
AcDbMText
 10
-379.62326250000001
 20
-9.7507920000000183
 30
0.0
 40
6.1333280000000006
 41
0.0
 71
               1
 72
               1
  1
S
  7
Arial
 73
               1
 44
1.0
  0
MTEXT
  5
16D
100
AcDbEntity
  8
2
 62
               7
100
AcDbMText
 10
-373.62326249999995
 20
-9.7507920000000183
 30
0.0
 40
6.1333280000000006
 41
0.0
 71
               1
 72
               1
  1
I
  7
Arial
 73
               1
 44
1.0
  0
MTEXT
  5
16E
100
AcDbEntity
  8
2
 62
               7
100
AcDbMText
 10
-367.62326249999995
 20
-9.7507920000000183
 30
0.0
 40
6.1333280000000006
 41
0.0
 71
               1
 72
               1
  1
T
  7
Arial
 73
               1
 44
1.0
  0
MTEXT
  5
16F
100
AcDbEntity
  8
2
 62
               7
100
AcDbMText
 10
-361.62326250000001
 20
-9.7507920000000183
 30
0.0
 40
6.1333280000000006
 41
0.0
 71
               1
 72
               1
  1
I
  7
Arial
 73
               1
 44
1.0
  0
MTEXT
  5
170
100
AcDbEntity
  8
2
 62
               7
100
AcDbMText
 10
-355.62326250000001
 20
-9.7507920000000183
 30
0.0
 40
6.1333280000000006
 41
0.0
 71
               1
 72
               1
  1
O
  7
Arial
 73
               1
 44
1.0
  0
MTEXT
  5
171
100
AcDbEntity
  8
2
 62
               7
100
AcDbMText
 10
-349.62326250000001
 20
-9.7507920000000183
 30
0.0
 40
6.1333280000000006
 41
0.0
 71
               1
 72
               1
  1
N
  7
Arial
 73
               1
 44
1.0
  0
MTEXT
  5
172
100
AcDbEntity
  8
2
 62
               7
100
AcDbMText
 10
-537.09399250000001
 20
311.986178
 30
0.0
 40
6.1333280000000006
 41
0.0
 71
               1
 72
               1
  1
S
  7
Arial
 73
               1
 44
1.0
  0
MTEXT
  5
173
100
AcDbEntity
  8
2
 62
               7
100
AcDbMText
 10
-531.09399250000001
 20
311.986178
 30
0.0
 40
6.1333280000000006
 41
0.0
 71
               1
 72
               1
  1
T
  7
Arial
 73
               1
 44
1.0
  0
MTEXT
  5
174
100
AcDbEntity
  8
2
 62
               7
100
AcDbMText
 10
-525.09399250000013
 20
311.986178
 30
0.0
 40
6.1333280000000006
 41
0.0
 71
               1
 72
               1
  1
A
  7
Arial
 73
               1
 44
1.0
  0
MTEXT
  5
175
100
AcDbEntity
  8
2
 62
               7
100
AcDbMText
 10
-519.09399250000001
 20
311.986178
 30
0.0
 40
6.1333280000000006
 41
0.0
 71
               1
 72
               1
  1
I
  7
Arial
 73
               1
 44
1.0
  0
MTEXT
  5
176
100
AcDbEntity
  8
2
 62
               7
100
AcDbMText
 10
-513.09399250000001
 20
311.986178
 30
0.0
 40
6.1333280000000006
 41
0.0
 71
               1
 72
               1
  1
R
  7
Arial
 73
               1
 44
1.0
  0
MTEXT
  5
177
100
AcDbEntity
  8
2
 62
               7
100
AcDbMText
 10
-507.09399250000001
 20
311.986178
 30
0.0
 40
6.1333280000000006
 41
0.0
 71
               1
 72
               1
  1
W
  7
Arial
 73
               1
 44
1.0
  0
MTEXT
  5
178
100
AcDbEntity
  8
2
 62
               7
100
AcDbMText
 10
-501.09399250000001
 20
311.986178
 30
0.0
 40
6.1333280000000006
 41
0.0
 71
               1
 72
               1
  1
A
  7
Arial
 73
               1
 44
1.0
  0
MTEXT
  5
179
100
AcDbEntity
  8
2
 62
               7
100
AcDbMText
 10
-495.09399250000001
 20
311.986178
 30
0.0
 40
6.1333280000000006
 41
0.0
 71
               1
 72
               1
  1
Y
  7
Arial
 73
               1
 44
1.0
  0
MTEXT
  5
17A
100
AcDbEntity
  8
2
 62
               7
100
AcDbMText
 10
-483.09399249999996
 20
311.986178
 30
0.0
 40
6.1333280000000006
 41
0.0
 71
               1
 72
               1
  1
T
  7
Arial
 73
               1
 44
1.0
  0
MTEXT
  5
17B
100
AcDbEntity
  8
2
 62
               7
100
AcDbMText
 10
-477.09399250000001
 20
311.986178
 30
0.0
 40
6.1333280000000006
 41
0.0
 71
               1
 72
               1
  1
O
  7
Arial
 73
               1
 44
1.0
  0
MTEXT
  5
17C
100
AcDbEntity
  8
2
 62
               7
100
AcDbMText
 10
-465.09399250000001
 20
311.986178
 30
0.0
 40
6.1333280000000006
 41
0.0
 71
               1
 72
               1
  1
G
  7
Arial
 73
               1
 44
1.0
  0
MTEXT
  5
17D
100
AcDbEntity
  8
2
 62
               7
100
AcDbMText
 10
-459.09399249999996
 20
311.986178
 30
0.0
 40
6.1333280000000006
 41
0.0
 71
               1
 72
               1
  1
R
  7
Arial
 73
               1
 44
1.0
  0
MTEXT
  5
17E
100
AcDbEntity
  8
2
 62
               7
100
AcDbMText
 10
-453.09399249999996
 20
311.986178
 30
0.0
 40
6.1333280000000006
 41
0.0
 71
               1
 72
               1
  1
I
  7
Arial
 73
               1
 44
1.0
  0
MTEXT
  5
17F
100
AcDbEntity
  8
2
 62
               7
100
AcDbMText
 10
-447.09399250000001
 20
311.986178
 30
0.0
 40
6.1333280000000006
 41
0.0
 71
               1
 72
               1
  1
D
  7
Arial
 73
               1
 44
1.0
  0
MTEXT
  5
180
100
AcDbEntity
  8
2
 62
               7
100
AcDbMText
 10
-398.51809250000002
 20
362.43502799999999
 30
0.0
 40
6.1333280000000006
 41
0.0
 71
               1
 72
               1
  1
S
  7
Arial
 73
               1
 44
1.0
  0
MTEXT
  5
181
100
AcDbEntity
  8
2
 62
               7
100
AcDbMText
 10
-392.51809250000002
 20
362.43502799999999
 30
0.0
 40
6.1333280000000006
 41
0.0
 71
               1
 72
               1
  1
H
  7
Arial
 73
               1
 44
1.0
  0
MTEXT
  5
182
100
AcDbEntity
  8
2
 62
               7
100
AcDbMText
 10
-386.51809249999997
 20
362.43502799999999
 30
0.0
 40
6.1333280000000006
 41
0.0
 71
               1
 72
               1
  1
E
  7
Arial
 73
               1
 44
1.0
  0
MTEXT
  5
183
100
AcDbEntity
  8
2
 62
               7
100
AcDbMText
 10
-380.51809249999997
 20
362.43502799999999
 30
0.0
 40
6.1333280000000006
 41
0.0
 71
               1
 72
               1
  1
L
  7
Arial
 73
               1
 44
1.0
  0
MTEXT
  5
184
100
AcDbEntity
  8
2
 62
               7
100
AcDbMText
 10
-374.51809249999997
 20
362.43502799999999
 30
0.0
 40
6.1333280000000006
 41
0.0
 71
               1
 72
               1
  1
L
  7
Arial
 73
               1
 44
1.0
  0
MTEXT
  5
185
100
AcDbEntity
  8
2
 62
               7
100
AcDbMText
 10
-362.51809250000002
 20
362.43502799999999
 30
0.0
 40
6.1333280000000006
 41
0.0
 71
               1
 72
               1
  1
F
  7
Arial
 73
               1
 44
1.0
  0
MTEXT
  5
186
100
AcDbEntity
  8
2
 62
               7
100
AcDbMText
 10
-356.51809249999997
 20
362.43502799999999
 30
0.0
 40
6.1333280000000006
 41
0.0
 71
               1
 72
               1
  1
R
  7
Arial
 73
               1
 44
1.0
  0
MTEXT
  5
187
100
AcDbEntity
  8
2
 62
               7
100
AcDbMText
 10
-350.51809249999997
 20
362.43502799999999
 30
0.0
 40
6.1333280000000006
 41
0.0
 71
               1
 72
               1
  1
O
  7
Arial
 73
               1
 44
1.0
  0
MTEXT
  5
188
100
AcDbEntity
  8
2
 62
               7
100
AcDbMText
 10
-344.51809249999997
 20
362.43502799999999
 30
0.0
 40
6.1333280000000006
 41
0.0
 71
               1
 72
               1
  1
N
  7
Arial
 73
               1
 44
1.0
  0
MTEXT
  5
189
100
AcDbEntity
  8
2
 62
               7
100
AcDbMText
 10
-338.51809250000002
 20
362.43502799999999
 30
0.0
 40
6.1333280000000006
 41
0.0
 71
               1
 72
               1
  1
T
  7
Arial
 73
               1
 44
1.0
  0
MTEXT
  5
18A
100
AcDbEntity
  8
2
 62
               7
100
AcDbMText
 10
-398.51809250000002
 20
347.43502799999999
 30
0.0
 40
6.1333280000000006
 41
0.0
 71
               1
 72
               1
  1
D
  7
Arial
 73
               1
 44
1.0
  0
MTEXT
  5
18B
100
AcDbEntity
  8
2
 62
               7
100
AcDbMText
 10
-392.51809250000002
 20
347.43502799999999
 30
0.0
 40
6.1333280000000006
 41
0.0
 71
               1
 72
               1
  1
R
  7
Arial
 73
               1
 44
1.0
  0
MTEXT
  5
18C
100
AcDbEntity
  8
2
 62
               7
100
AcDbMText
 10
-386.51809249999997
 20
347.43502799999999
 30
0.0
 40
6.1333280000000006
 41
0.0
 71
               1
 72
               1
  1
I
  7
Arial
 73
               1
 44
1.0
  0
MTEXT
  5
18D
100
AcDbEntity
  8
2
 62
               7
100
AcDbMText
 10
-380.51809249999997
 20
347.43502799999999
 30
0.0
 40
6.1333280000000006
 41
0.0
 71
               1
 72
               1
  1
V
  7
Arial
 73
               1
 44
1.0
  0
MTEXT
  5
18E
100
AcDbEntity
  8
2
 62
               7
100
AcDbMText
 10
-374.51809249999997
 20
347.43502799999999
 30
0.0
 40
6.1333280000000006
 41
0.0
 71
               1
 72
               1
  1
E
  7
Arial
 73
               1
 44
1.0
  0
MTEXT
  5
18F
100
AcDbEntity
  8
2
 62
               7
100
AcDbMText
 10
-362.51809250000002
 20
347.43502799999999
 30
0.0
 40
6.1333280000000006
 41
0.0
 71
               1
 72
               1
  1
C
  7
Arial
 73
               1
 44
1.0
  0
MTEXT
  5
190
100
AcDbEntity
  8
2
 62
               7
100
AcDbMText
 10
-356.51809249999997
 20
347.43502799999999
 30
0.0
 40
6.1333280000000006
 41
0.0
 71
               1
 72
               1
  1
A
  7
Arial
 73
               1
 44
1.0
  0
MTEXT
  5
191
100
AcDbEntity
  8
2
 62
               7
100
AcDbMText
 10
-350.51809249999997
 20
347.43502799999999
 30
0.0
 40
6.1333280000000006
 41
0.0
 71
               1
 72
               1
  1
G
  7
Arial
 73
               1
 44
1.0
  0
MTEXT
  5
192
100
AcDbEntity
  8
2
 62
               7
100
AcDbMText
 10
-344.51809249999997
 20
347.43502799999999
 30
0.0
 40
6.1333280000000006
 41
0.0
 71
               1
 72
               1
  1
E
  7
Arial
 73
               1
 44
1.0
  0
MTEXT
  5
193
100
AcDbEntity
  8
2
 62
               7
100
AcDbMText
 10
-212.54741250000004
 20
365.281408
 30
0.0
 40
6.1333280000000006
 41
0.0
 71
               1
 72
               1
  1
O
  7
Arial
 73
               1
 44
1.0
  0
MTEXT
  5
194
100
AcDbEntity
  8
2
 62
               7
100
AcDbMText
 10
-206.54741250000001
 20
365.281408
 30
0.0
 40
6.1333280000000006
 41
0.0
 71
               1
 72
               1
  1
R
  7
Arial
 73
               1
 44
1.0
  0
MTEXT
  5
195
100
AcDbEntity
  8
2
 62
               7
100
AcDbMText
 10
-200.54741250000001
 20
365.281408
 30
0.0
 40
6.1333280000000006
 41
0.0
 71
               1
 72
               1
  1
C
  7
Arial
 73
               1
 44
1.0
  0
MTEXT
  5
196
100
AcDbEntity
  8
2
 62
               7
100
AcDbMText
 10
-194.54741250000001
 20
365.281408
 30
0.0
 40
6.1333280000000006
 41
0.0
 71
               1
 72
               1
  1
H
  7
Arial
 73
               1
 44
1.0
  0
MTEXT
  5
197
100
AcDbEntity
  8
2
 62
               7
100
AcDbMText
 10
-188.54741250000001
 20
365.281408
 30
0.0
 40
6.1333280000000006
 41
0.0
 71
               1
 72
               1
  1
E
  7
Arial
 73
               1
 44
1.0
  0
MTEXT
  5
198
100
AcDbEntity
  8
2
 62
               7
100
AcDbMText
 10
-182.54741250000004
 20
365.281408
 30
0.0
 40
6.1333280000000006
 41
0.0
 71
               1
 72
               1
  1
S
  7
Arial
 73
               1
 44
1.0
  0
MTEXT
  5
199
100
AcDbEntity
  8
2
 62
               7
100
AcDbMText
 10
-176.54741250000001
 20
365.281408
 30
0.0
 40
6.1333280000000006
 41
0.0
 71
               1
 72
               1
  1
T
  7
Arial
 73
               1
 44
1.0
  0
MTEXT
  5
19A
100
AcDbEntity
  8
2
 62
               7
100
AcDbMText
 10
-170.54741250000001
 20
365.281408
 30
0.0
 40
6.1333280000000006
 41
0.0
 71
               1
 72
               1
  1
R
  7
Arial
 73
               1
 44
1.0
  0
MTEXT
  5
19B
100
AcDbEntity
  8
2
 62
               7
100
AcDbMText
 10
-164.54741250000001
 20
365.281408
 30
0.0
 40
6.1333280000000006
 41
0.0
 71
               1
 72
               1
  1
A
  7
Arial
 73
               1
 44
1.0
  0
MTEXT
  5
19C
100
AcDbEntity
  8
2
 62
               7
100
AcDbMText
 10
-152.54741250000001
 20
365.281408
 30
0.0
 40
6.1333280000000006
 41
0.0
 71
               1
 72
               1
  1
S
  7
Arial
 73
               1
 44
1.0
  0
MTEXT
  5
19D
100
AcDbEntity
  8
2
 62
               7
100
AcDbMText
 10
-146.54741250000001
 20
365.281408
 30
0.0
 40
6.1333280000000006
 41
0.0
 71
               1
 72
               1
  1
H
  7
Arial
 73
               1
 44
1.0
  0
MTEXT
  5
19E
100
AcDbEntity
  8
2
 62
               7
100
AcDbMText
 10
-140.54741250000001
 20
365.281408
 30
0.0
 40
6.1333280000000006
 41
0.0
 71
               1
 72
               1
  1
E
  7
Arial
 73
               1
 44
1.0
  0
MTEXT
  5
19F
100
AcDbEntity
  8
2
 62
               7
100
AcDbMText
 10
-134.54741250000001
 20
365.281408
 30
0.0
 40
6.1333280000000006
 41
0.0
 71
               1
 72
               1
  1
L
  7
Arial
 73
               1
 44
1.0
  0
MTEXT
  5
1A0
100
AcDbEntity
  8
2
 62
               7
100
AcDbMText
 10
-128.54741250000001
 20
365.281408
 30
0.0
 40
6.1333280000000006
 41
0.0
 71
               1
 72
               1
  1
L
  7
Arial
 73
               1
 44
1.0
  0
MTEXT
  5
1A1
100
AcDbEntity
  8
2
 62
               7
100
AcDbMText
 10
-116.54741250000002
 20
365.281408
 30
0.0
 40
6.1333280000000006
 41
0.0
 71
               1
 72
               1
  1
C
  7
Arial
 73
               1
 44
1.0
  0
MTEXT
  5
1A2
100
AcDbEntity
  8
2
 62
               7
100
AcDbMText
 10
-110.54741250000002
 20
365.281408
 30
0.0
 40
6.1333280000000006
 41
0.0
 71
               1
 72
               1
  1
E
  7
Arial
 73
               1
 44
1.0
  0
MTEXT
  5
1A3
100
AcDbEntity
  8
2
 62
               7
100
AcDbMText
 10
-104.54741250000001
 20
365.281408
 30
0.0
 40
6.1333280000000006
 41
0.0
 71
               1
 72
               1
  1
I
  7
Arial
 73
               1
 44
1.0
  0
MTEXT
  5
1A4
100
AcDbEntity
  8
2
 62
               7
100
AcDbMText
 10
-98.547412500000007
 20
365.281408
 30
0.0
 40
6.1333280000000006
 41
0.0
 71
               1
 72
               1
  1
L
  7
Arial
 73
               1
 44
1.0
  0
MTEXT
  5
1A5
100
AcDbEntity
  8
2
 62
               7
100
AcDbMText
 10
-92.547412500000007
 20
365.281408
 30
0.0
 40
6.1333280000000006
 41
0.0
 71
               1
 72
               1
  1
I
  7
Arial
 73
               1
 44
1.0
  0
MTEXT
  5
1A6
100
AcDbEntity
  8
2
 62
               7
100
AcDbMText
 10
-86.547412500000021
 20
365.281408
 30
0.0
 40
6.1333280000000006
 41
0.0
 71
               1
 72
               1
  1
N
  7
Arial
 73
               1
 44
1.0
  0
MTEXT
  5
1A7
100
AcDbEntity
  8
2
 62
               7
100
AcDbMText
 10
-80.547412500000007
 20
365.281408
 30
0.0
 40
6.1333280000000006
 41
0.0
 71
               1
 72
               1
  1
G
  7
Arial
 73
               1
 44
1.0
  0
MTEXT
  5
1A8
100
AcDbEntity
  8
2
 62
               7
100
AcDbMText
 10
-68.547412500000021
 20
365.281408
 30
0.0
 40
6.1333280000000006
 41
0.0
 71
               1
 72
               1
  1
A
  7
Arial
 73
               1
 44
1.0
  0
MTEXT
  5
1A9
100
AcDbEntity
  8
2
 62
               7
100
AcDbMText
 10
-62.547412500000014
 20
365.281408
 30
0.0
 40
6.1333280000000006
 41
0.0
 71
               1
 72
               1
  1
N
  7
Arial
 73
               1
 44
1.0
  0
MTEXT
  5
1AA
100
AcDbEntity
  8
2
 62
               7
100
AcDbMText
 10
-56.547412500000007
 20
365.281408
 30
0.0
 40
6.1333280000000006
 41
0.0
 71
               1
 72
               1
  1
D
  7
Arial
 73
               1
 44
1.0
  0
MTEXT
  5
1AB
100
AcDbEntity
  8
2
 62
               7
100
AcDbMText
 10
-44.547412500000007
 20
365.281408
 30
0.0
 40
6.1333280000000006
 41
0.0
 71
               1
 72
               1
  1
B
  7
Arial
 73
               1
 44
1.0
  0
MTEXT
  5
1AC
100
AcDbEntity
  8
2
 62
               7
100
AcDbMText
 10
-38.547412500000007
 20
365.281408
 30
0.0
 40
6.1333280000000006
 41
0.0
 71
               1
 72
               1
  1
A
  7
Arial
 73
               1
 44
1.0
  0
MTEXT
  5
1AD
100
AcDbEntity
  8
2
 62
               7
100
AcDbMText
 10
-32.547412500000007
 20
365.281408
 30
0.0
 40
6.1333280000000006
 41
0.0
 71
               1
 72
               1
  1
C
  7
Arial
 73
               1
 44
1.0
  0
MTEXT
  5
1AE
100
AcDbEntity
  8
2
 62
               7
100
AcDbMText
 10
-26.547412500000007
 20
365.281408
 30
0.0
 40
6.1333280000000006
 41
0.0
 71
               1
 72
               1
  1
K
  7
Arial
 73
               1
 44
1.0
  0
MTEXT
  5
1AF
100
AcDbEntity
  8
2
 62
               7
100
AcDbMText
 10
-212.54741250000004
 20
350.281408
 30
0.0
 40
6.1333280000000006
 41
0.0
 71
               1
 72
               1
  1
W
  7
Arial
 73
               1
 44
1.0
  0
MTEXT
  5
1B0
100
AcDbEntity
  8
2
 62
               7
100
AcDbMText
 10
-206.54741250000001
 20
350.281408
 30
0.0
 40
6.1333280000000006
 41
0.0
 71
               1
 72
               1
  1
A
  7
Arial
 73
               1
 44
1.0
  0
MTEXT
  5
1B1
100
AcDbEntity
  8
2
 62
               7
100
AcDbMText
 10
-200.54741250000001
 20
350.281408
 30
0.0
 40
6.1333280000000006
 41
0.0
 71
               1
 72
               1
  1
L
  7
Arial
 73
               1
 44
1.0
  0
MTEXT
  5
1B2
100
AcDbEntity
  8
2
 62
               7
100
AcDbMText
 10
-194.54741250000001
 20
350.281408
 30
0.0
 40
6.1333280000000006
 41
0.0
 71
               1
 72
               1
  1
L
  7
Arial
 73
               1
 44
1.0
  0
MTEXT
  5
1B3
100
AcDbEntity
  8
2
 62
               7
100
AcDbMText
 10
-182.54741250000004
 20
350.281408
 30
0.0
 40
6.1333280000000006
 41
0.0
 71
               1
 72
               1
  1
I
  7
Arial
 73
               1
 44
1.0
  0
MTEXT
  5
1B4
100
AcDbEntity
  8
2
 62
               7
100
AcDbMText
 10
-176.54741250000001
 20
350.281408
 30
0.0
 40
6.1333280000000006
 41
0.0
 71
               1
 72
               1
  1
N
  7
Arial
 73
               1
 44
1.0
  0
MTEXT
  5
1B5
100
AcDbEntity
  8
2
 62
               7
100
AcDbMText
 10
-164.54741250000001
 20
350.281408
 30
0.0
 40
6.1333280000000006
 41
0.0
 71
               1
 72
               1
  1
S
  7
Arial
 73
               1
 44
1.0
  0
MTEXT
  5
1B6
100
AcDbEntity
  8
2
 62
               7
100
AcDbMText
 10
-158.54741250000001
 20
350.281408
 30
0.0
 40
6.1333280000000006
 41
0.0
 71
               1
 72
               1
  1
T
  7
Arial
 73
               1
 44
1.0
  0
MTEXT
  5
1B7
100
AcDbEntity
  8
2
 62
               7
100
AcDbMText
 10
-152.54741250000001
 20
350.281408
 30
0.0
 40
6.1333280000000006
 41
0.0
 71
               1
 72
               1
  1
O
  7
Arial
 73
               1
 44
1.0
  0
MTEXT
  5
1B8
100
AcDbEntity
  8
2
 62
               7
100
AcDbMText
 10
-146.54741250000001
 20
350.281408
 30
0.0
 40
6.1333280000000006
 41
0.0
 71
               1
 72
               1
  1
R
  7
Arial
 73
               1
 44
1.0
  0
MTEXT
  5
1B9
100
AcDbEntity
  8
2
 62
               7
100
AcDbMText
 10
-140.54741250000001
 20
350.281408
 30
0.0
 40
6.1333280000000006
 41
0.0
 71
               1
 72
               1
  1
E
  7
Arial
 73
               1
 44
1.0
  0
MTEXT
  5
1BA
100
AcDbEntity
  8
2
 62
               7
100
AcDbMText
 10
-134.54741250000001
 20
350.281408
 30
0.0
 40
6.1333280000000006
 41
0.0
 71
               1
 72
               1
  1
D
  7
Arial
 73
               1
 44
1.0
  0
MTEXT
  5
1BB
100
AcDbEntity
  8
2
 62
               7
100
AcDbMText
 10
-122.54741250000001
 20
350.281408
 30
0.0
 40
6.1333280000000006
 41
0.0
 71
               1
 72
               1
  1
P
  7
Arial
 73
               1
 44
1.0
  0
MTEXT
  5
1BC
100
AcDbEntity
  8
2
 62
               7
100
AcDbMText
 10
-116.54741250000002
 20
350.281408
 30
0.0
 40
6.1333280000000006
 41
0.0
 71
               1
 72
               1
  1
O
  7
Arial
 73
               1
 44
1.0
  0
MTEXT
  5
1BD
100
AcDbEntity
  8
2
 62
               7
100
AcDbMText
 10
-110.54741250000002
 20
350.281408
 30
0.0
 40
6.1333280000000006
 41
0.0
 71
               1
 72
               1
  1
S
  7
Arial
 73
               1
 44
1.0
  0
MTEXT
  5
1BE
100
AcDbEntity
  8
2
 62
               7
100
AcDbMText
 10
-104.54741250000001
 20
350.281408
 30
0.0
 40
6.1333280000000006
 41
0.0
 71
               1
 72
               1
  1
I
  7
Arial
 73
               1
 44
1.0
  0
MTEXT
  5
1BF
100
AcDbEntity
  8
2
 62
               7
100
AcDbMText
 10
-98.547412500000007
 20
350.281408
 30
0.0
 40
6.1333280000000006
 41
0.0
 71
               1
 72
               1
  1
T
  7
Arial
 73
               1
 44
1.0
  0
MTEXT
  5
1C0
100
AcDbEntity
  8
2
 62
               7
100
AcDbMText
 10
-92.547412500000007
 20
350.281408
 30
0.0
 40
6.1333280000000006
 41
0.0
 71
               1
 72
               1
  1
I
  7
Arial
 73
               1
 44
1.0
  0
MTEXT
  5
1C1
100
AcDbEntity
  8
2
 62
               7
100
AcDbMText
 10
-86.547412500000021
 20
350.281408
 30
0.0
 40
6.1333280000000006
 41
0.0
 71
               1
 72
               1
  1
O
  7
Arial
 73
               1
 44
1.0
  0
MTEXT
  5
1C2
100
AcDbEntity
  8
2
 62
               7
100
AcDbMText
 10
-80.547412500000007
 20
350.281408
 30
0.0
 40
6.1333280000000006
 41
0.0
 71
               1
 72
               1
  1
N
  7
Arial
 73
               1
 44
1.0
  0
MTEXT
  5
1C3
100
AcDbEntity
  8
2
 62
               7
100
AcDbMText
 10
-212.54741250000004
 20
335.281408
 30
0.0
 40
6.1333280000000006
 41
0.0
 71
               1
 72
               1
  1
C
  7
Arial
 73
               1
 44
1.0
  0
MTEXT
  5
1C4
100
AcDbEntity
  8
2
 62
               7
100
AcDbMText
 10
-206.54741250000001
 20
335.281408
 30
0.0
 40
6.1333280000000006
 41
0.0
 71
               1
 72
               1
  1
L
  7
Arial
 73
               1
 44
1.0
  0
MTEXT
  5
1C5
100
AcDbEntity
  8
2
 62
               7
100
AcDbMText
 10
-200.54741250000001
 20
335.281408
 30
0.0
 40
6.1333280000000006
 41
0.0
 71
               1
 72
               1
  1
E
  7
Arial
 73
               1
 44
1.0
  0
MTEXT
  5
1C6
100
AcDbEntity
  8
2
 62
               7
100
AcDbMText
 10
-194.54741250000001
 20
335.281408
 30
0.0
 40
6.1333280000000006
 41
0.0
 71
               1
 72
               1
  1
A
  7
Arial
 73
               1
 44
1.0
  0
MTEXT
  5
1C7
100
AcDbEntity
  8
2
 62
               7
100
AcDbMText
 10
-188.54741250000001
 20
335.281408
 30
0.0
 40
6.1333280000000006
 41
0.0
 71
               1
 72
               1
  1
R
  7
Arial
 73
               1
 44
1.0
  0
MTEXT
  5
1C8
100
AcDbEntity
  8
2
 62
               7
100
AcDbMText
 10
-182.54741250000004
 20
335.281408
 30
0.0
 40
6.1333280000000006
 41
0.0
 71
               1
 72
               1
  1
A
  7
Arial
 73
               1
 44
1.0
  0
MTEXT
  5
1C9
100
AcDbEntity
  8
2
 62
               7
100
AcDbMText
 10
-176.54741250000001
 20
335.281408
 30
0.0
 40
6.1333280000000006
 41
0.0
 71
               1
 72
               1
  1
N
  7
Arial
 73
               1
 44
1.0
  0
MTEXT
  5
1CA
100
AcDbEntity
  8
2
 62
               7
100
AcDbMText
 10
-170.54741250000001
 20
335.281408
 30
0.0
 40
6.1333280000000006
 41
0.0
 71
               1
 72
               1
  1
C
  7
Arial
 73
               1
 44
1.0
  0
MTEXT
  5
1CB
100
AcDbEntity
  8
2
 62
               7
100
AcDbMText
 10
-164.54741250000001
 20
335.281408
 30
0.0
 40
6.1333280000000006
 41
0.0
 71
               1
 72
               1
  1
E
  7
Arial
 73
               1
 44
1.0
  0
MTEXT
  5
1CC
100
AcDbEntity
  8
2
 62
               7
100
AcDbMText
 10
-146.54741250000001
 20
335.281408
 30
0.0
 40
6.1333280000000006
 41
0.0
 71
               1
 72
               1
  1
1
  7
Arial
 73
               1
 44
1.0
  0
MTEXT
  5
1CD
100
AcDbEntity
  8
2
 62
               7
100
AcDbMText
 10
-140.54741250000001
 20
335.281408
 30
0.0
 40
6.1333280000000006
 41
0.0
 71
               1
 72
               1
  1
2
  7
Arial
 73
               1
 44
1.0
  0
MTEXT
  5
1CE
100
AcDbEntity
  8
2
 62
               7
100
AcDbMText
 10
-134.54741250000001
 20
335.281408
 30
0.0
 40
6.1333280000000006
 41
0.0
 71
               1
 72
               1
  1
'
  7
Arial
 73
               1
 44
1.0
  0
MTEXT
  5
1CF
100
AcDbEntity
  8
2
 62
               7
100
AcDbMText
 10
-128.54741250000001
 20
335.281408
 30
0.0
 40
6.1333280000000006
 41
0.0
 71
               1
 72
               1
  1
-
  7
Arial
 73
               1
 44
1.0
  0
MTEXT
  5
1D0
100
AcDbEntity
  8
2
 62
               7
100
AcDbMText
 10
-122.54741250000001
 20
335.281408
 30
0.0
 40
6.1333280000000006
 41
0.0
 71
               1
 72
               1
  1
9
  7
Arial
 73
               1
 44
1.0
  0
MTEXT
  5
1D1
100
AcDbEntity
  8
2
 62
               7
100
AcDbMText
 10
-116.54741250000002
 20
335.281408
 30
0.0
 40
6.1333280000000006
 41
0.0
 71
               1
 72
               1
  1
"
  7
Arial
 73
               1
 44
1.0
  0
MTEXT
  5
1D2
100
AcDbEntity
  8
2
 62
               7
100
AcDbMText
 10
322.85940750000003
 20
1.4296080000000018
 30
0.0
 40
6.1333280000000006
 41
0.0
 71
               1
 72
               1
  1
S
  7
Arial
 73
               1
 44
1.0
  0
MTEXT
  5
1D3
100
AcDbEntity
  8
2
 62
               7
100
AcDbMText
 10
328.85940749999997
 20
1.4296080000000018
 30
0.0
 40
6.1333280000000006
 41
0.0
 71
               1
 72
               1
  1
T
  7
Arial
 73
               1
 44
1.0
  0
MTEXT
  5
1D4
100
AcDbEntity
  8
2
 62
               7
100
AcDbMText
 10
334.85940750000003
 20
1.4296080000000018
 30
0.0
 40
6.1333280000000006
 41
0.0
 71
               1
 72
               1
  1
A
  7
Arial
 73
               1
 44
1.0
  0
MTEXT
  5
1D5
100
AcDbEntity
  8
2
 62
               7
100
AcDbMText
 10
340.85940750000003
 20
1.4296080000000018
 30
0.0
 40
6.1333280000000006
 41
0.0
 71
               1
 72
               1
  1
G
  7
Arial
 73
               1
 44
1.0
  0
MTEXT
  5
1D6
100
AcDbEntity
  8
2
 62
               7
100
AcDbMText
 10
346.85940750000003
 20
1.4296080000000018
 30
0.0
 40
6.1333280000000006
 41
0.0
 71
               1
 72
               1
  1
E
  7
Arial
 73
               1
 44
1.0
  0
MTEXT
  5
1D7
100
AcDbEntity
  8
2
 62
               7
100
AcDbMText
 10
358.85940749999997
 20
1.4296080000000018
 30
0.0
 40
6.1333280000000006
 41
0.0
 71
               1
 72
               1
  1
L
  7
Arial
 73
               1
 44
1.0
  0
MTEXT
  5
1D8
100
AcDbEntity
  8
2
 62
               7
100
AcDbMText
 10
364.85940750000003
 20
1.4296080000000018
 30
0.0
 40
6.1333280000000006
 41
0.0
 71
               1
 72
               1
  1
E
  7
Arial
 73
               1
 44
1.0
  0
MTEXT
  5
1D9
100
AcDbEntity
  8
2
 62
               7
100
AcDbMText
 10
370.85940750000003
 20
1.4296080000000018
 30
0.0
 40
6.1333280000000006
 41
0.0
 71
               1
 72
               1
  1
F
  7
Arial
 73
               1
 44
1.0
  0
MTEXT
  5
1DA
100
AcDbEntity
  8
2
 62
               7
100
AcDbMText
 10
376.85940750000003
 20
1.4296080000000018
 30
0.0
 40
6.1333280000000006
 41
0.0
 71
               1
 72
               1
  1
T
  7
Arial
 73
               1
 44
1.0
  0
MTEXT
  5
1DB
100
AcDbEntity
  8
2
 62
               7
100
AcDbMText
 10
388.85940749999997
 20
1.4296080000000018
 30
0.0
 40
6.1333280000000006
 41
0.0
 71
               1
 72
               1
  1
S
  7
Arial
 73
               1
 44
1.0
  0
MTEXT
  5
1DC
100
AcDbEntity
  8
2
 62
               7
100
AcDbMText
 10
394.85940750000003
 20
1.4296080000000018
 30
0.0
 40
6.1333280000000006
 41
0.0
 71
               1
 72
               1
  1
H
  7
Arial
 73
               1
 44
1.0
  0
MTEXT
  5
1DD
100
AcDbEntity
  8
2
 62
               7
100
AcDbMText
 10
400.85940750000003
 20
1.4296080000000018
 30
0.0
 40
6.1333280000000006
 41
0.0
 71
               1
 72
               1
  1
E
  7
Arial
 73
               1
 44
1.0
  0
MTEXT
  5
1DE
100
AcDbEntity
  8
2
 62
               7
100
AcDbMText
 10
406.85940750000003
 20
1.4296080000000018
 30
0.0
 40
6.1333280000000006
 41
0.0
 71
               1
 72
               1
  1
L
  7
Arial
 73
               1
 44
1.0
  0
MTEXT
  5
1DF
100
AcDbEntity
  8
2
 62
               7
100
AcDbMText
 10
412.85940750000003
 20
1.4296080000000018
 30
0.0
 40
6.1333280000000006
 41
0.0
 71
               1
 72
               1
  1
L
  7
Arial
 73
               1
 44
1.0
  0
MTEXT
  5
1E0
100
AcDbEntity
  8
2
 62
               7
100
AcDbMText
 10
424.85940750000003
 20
1.4296080000000018
 30
0.0
 40
6.1333280000000006
 41
0.0
 71
               1
 72
               1
  1
W
  7
Arial
 73
               1
 44
1.0
  0
MTEXT
  5
1E1
100
AcDbEntity
  8
2
 62
               7
100
AcDbMText
 10
430.85940750000003
 20
1.4296080000000018
 30
0.0
 40
6.1333280000000006
 41
0.0
 71
               1
 72
               1
  1
A
  7
Arial
 73
               1
 44
1.0
  0
MTEXT
  5
1E2
100
AcDbEntity
  8
2
 62
               7
100
AcDbMText
 10
436.85940750000003
 20
1.4296080000000018
 30
0.0
 40
6.1333280000000006
 41
0.0
 71
               1
 72
               1
  1
L
  7
Arial
 73
               1
 44
1.0
  0
MTEXT
  5
1E3
100
AcDbEntity
  8
2
 62
               7
100
AcDbMText
 10
442.85940750000003
 20
1.4296080000000018
 30
0.0
 40
6.1333280000000006
 41
0.0
 71
               1
 72
               1
  1
L
  7
Arial
 73
               1
 44
1.0
  0
MTEXT
  5
1E4
100
AcDbEntity
  8
2
 62
               7
100
AcDbMText
 10
323.95486750000003
 20
-10.407562000000013
 30
0.0
 40
6.1333280000000006
 41
0.0
 71
               1
 72
               1
  1
I
  7
Arial
 73
               1
 44
1.0
  0
MTEXT
  5
1E5
100
AcDbEntity
  8
2
 62
               7
100
AcDbMText
 10
329.95486750000003
 20
-10.407562000000013
 30
0.0
 40
6.1333280000000006
 41
0.0
 71
               1
 72
               1
  1
N
  7
Arial
 73
               1
 44
1.0
  0
MTEXT
  5
1E6
100
AcDbEntity
  8
2
 62
               7
100
AcDbMText
 10
341.95486750000003
 20
-10.407562000000013
 30
0.0
 40
6.1333280000000006
 41
0.0
 71
               1
 72
               1
  1
S
  7
Arial
 73
               1
 44
1.0
  0
MTEXT
  5
1E7
100
AcDbEntity
  8
2
 62
               7
100
AcDbMText
 10
347.95486749999998
 20
-10.407562000000013
 30
0.0
 40
6.1333280000000006
 41
0.0
 71
               1
 72
               1
  1
T
  7
Arial
 73
               1
 44
1.0
  0
MTEXT
  5
1E8
100
AcDbEntity
  8
2
 62
               7
100
AcDbMText
 10
353.95486750000003
 20
-10.407562000000013
 30
0.0
 40
6.1333280000000006
 41
0.0
 71
               1
 72
               1
  1
O
  7
Arial
 73
               1
 44
1.0
  0
MTEXT
  5
1E9
100
AcDbEntity
  8
2
 62
               7
100
AcDbMText
 10
359.95486750000003
 20
-10.407562000000013
 30
0.0
 40
6.1333280000000006
 41
0.0
 71
               1
 72
               1
  1
R
  7
Arial
 73
               1
 44
1.0
  0
MTEXT
  5
1EA
100
AcDbEntity
  8
2
 62
               7
100
AcDbMText
 10
365.95486750000003
 20
-10.407562000000013
 30
0.0
 40
6.1333280000000006
 41
0.0
 71
               1
 72
               1
  1
E
  7
Arial
 73
               1
 44
1.0
  0
MTEXT
  5
1EB
100
AcDbEntity
  8
2
 62
               7
100
AcDbMText
 10
371.95486750000003
 20
-10.407562000000013
 30
0.0
 40
6.1333280000000006
 41
0.0
 71
               1
 72
               1
  1
D
  7
Arial
 73
               1
 44
1.0
  0
MTEXT
  5
1EC
100
AcDbEntity
  8
2
 62
               7
100
AcDbMText
 10
383.95486750000003
 20
-10.407562000000013
 30
0.0
 40
6.1333280000000006
 41
0.0
 71
               1
 72
               1
  1
P
  7
Arial
 73
               1
 44
1.0
  0
MTEXT
  5
1ED
100
AcDbEntity
  8
2
 62
               7
100
AcDbMText
 10
389.95486750000003
 20
-10.407562000000013
 30
0.0
 40
6.1333280000000006
 41
0.0
 71
               1
 72
               1
  1
O
  7
Arial
 73
               1
 44
1.0
  0
MTEXT
  5
1EE
100
AcDbEntity
  8
2
 62
               7
100
AcDbMText
 10
395.95486750000003
 20
-10.407562000000013
 30
0.0
 40
6.1333280000000006
 41
0.0
 71
               1
 72
               1
  1
S
  7
Arial
 73
               1
 44
1.0
  0
MTEXT
  5
1EF
100
AcDbEntity
  8
2
 62
               7
100
AcDbMText
 10
401.95486750000003
 20
-10.407562000000013
 30
0.0
 40
6.1333280000000006
 41
0.0
 71
               1
 72
               1
  1
I
  7
Arial
 73
               1
 44
1.0
  0
MTEXT
  5
1F0
100
AcDbEntity
  8
2
 62
               7
100
AcDbMText
 10
407.95486749999998
 20
-10.407562000000013
 30
0.0
 40
6.1333280000000006
 41
0.0
 71
               1
 72
               1
  1
T
  7
Arial
 73
               1
 44
1.0
  0
MTEXT
  5
1F1
100
AcDbEntity
  8
2
 62
               7
100
AcDbMText
 10
413.95486750000003
 20
-10.407562000000013
 30
0.0
 40
6.1333280000000006
 41
0.0
 71
               1
 72
               1
  1
I
  7
Arial
 73
               1
 44
1.0
  0
MTEXT
  5
1F2
100
AcDbEntity
  8
2
 62
               7
100
AcDbMText
 10
419.95486750000003
 20
-10.407562000000013
 30
0.0
 40
6.1333280000000006
 41
0.0
 71
               1
 72
               1
  1
O
  7
Arial
 73
               1
 44
1.0
  0
MTEXT
  5
1F3
100
AcDbEntity
  8
2
 62
               7
100
AcDbMText
 10
425.95486750000003
 20
-10.407562000000013
 30
0.0
 40
6.1333280000000006
 41
0.0
 71
               1
 72
               1
  1
N
  7
Arial
 73
               1
 44
1.0
  0
MTEXT
  5
1F4
100
AcDbEntity
  8
2
 62
               7
100
AcDbMText
 10
472.66375750000003
 20
-33.800052000000022
 30
0.0
 40
6.1333280000000006
 41
0.0
 71
               1
 72
               1
  1
T
  7
Arial
 73
               1
 44
1.0
  0
MTEXT
  5
1F5
100
AcDbEntity
  8
2
 62
               7
100
AcDbMText
 10
478.66375750000003
 20
-33.800052000000022
 30
0.0
 40
6.1333280000000006
 41
0.0
 71
               1
 72
               1
  1
O
  7
Arial
 73
               1
 44
1.0
  0
MTEXT
  5
1F6
100
AcDbEntity
  8
2
 62
               7
100
AcDbMText
 10
490.66375750000003
 20
-33.800052000000022
 30
0.0
 40
6.1333280000000006
 41
0.0
 71
               1
 72
               1
  1
S
  7
Arial
 73
               1
 44
1.0
  0
MTEXT
  5
1F7
100
AcDbEntity
  8
2
 62
               7
100
AcDbMText
 10
496.66375749999997
 20
-33.800052000000022
 30
0.0
 40
6.1333280000000006
 41
0.0
 71
               1
 72
               1
  1
W
  7
Arial
 73
               1
 44
1.0
  0
MTEXT
  5
1F8
100
AcDbEntity
  8
2
 62
               7
100
AcDbMText
 10
502.66375750000009
 20
-33.800052000000022
 30
0.0
 40
6.1333280000000006
 41
0.0
 71
               1
 72
               1
  1
I
  7
Arial
 73
               1
 44
1.0
  0
MTEXT
  5
1F9
100
AcDbEntity
  8
2
 62
               7
100
AcDbMText
 10
508.66375750000003
 20
-33.800052000000022
 30
0.0
 40
6.1333280000000006
 41
0.0
 71
               1
 72
               1
  1
N
  7
Arial
 73
               1
 44
1.0
  0
MTEXT
  5
1FA
100
AcDbEntity
  8
2
 62
               7
100
AcDbMText
 10
514.66375749999997
 20
-33.800052000000022
 30
0.0
 40
6.1333280000000006
 41
0.0
 71
               1
 72
               1
  1
G
  7
Arial
 73
               1
 44
1.0
  0
MTEXT
  5
1FB
100
AcDbEntity
  8
2
 62
               7
100
AcDbMText
 10
526.66375749999997
 20
-33.800052000000022
 30
0.0
 40
6.1333280000000006
 41
0.0
 71
               1
 72
               1
  1
P
  7
Arial
 73
               1
 44
1.0
  0
MTEXT
  5
1FC
100
AcDbEntity
  8
2
 62
               7
100
AcDbMText
 10
532.66375749999997
 20
-33.800052000000022
 30
0.0
 40
6.1333280000000006
 41
0.0
 71
               1
 72
               1
  1
A
  7
Arial
 73
               1
 44
1.0
  0
MTEXT
  5
1FD
100
AcDbEntity
  8
2
 62
               7
100
AcDbMText
 10
538.66375749999997
 20
-33.800052000000022
 30
0.0
 40
6.1333280000000006
 41
0.0
 71
               1
 72
               1
  1
N
  7
Arial
 73
               1
 44
1.0
  0
MTEXT
  5
1FE
100
AcDbEntity
  8
2
 62
               7
100
AcDbMText
 10
544.66375749999997
 20
-33.800052000000022
 30
0.0
 40
6.1333280000000006
 41
0.0
 71
               1
 72
               1
  1
E
  7
Arial
 73
               1
 44
1.0
  0
MTEXT
  5
1FF
100
AcDbEntity
  8
2
 62
               7
100
AcDbMText
 10
550.66375749999997
 20
-33.800052000000022
 30
0.0
 40
6.1333280000000006
 41
0.0
 71
               1
 72
               1
  1
L
  7
Arial
 73
               1
 44
1.0
  0
MTEXT
  5
200
100
AcDbEntity
  8
2
 62
               7
100
AcDbMText
 10
472.66375750000003
 20
-48.800052000000022
 30
0.0
 40
6.1333280000000006
 41
0.0
 71
               1
 72
               1
  1
R
  7
Arial
 73
               1
 44
1.0
  0
MTEXT
  5
201
100
AcDbEntity
  8
2
 62
               7
100
AcDbMText
 10
478.66375750000003
 20
-48.800052000000022
 30
0.0
 40
6.1333280000000006
 41
0.0
 71
               1
 72
               1
  1
O
  7
Arial
 73
               1
 44
1.0
  0
MTEXT
  5
202
100
AcDbEntity
  8
2
 62
               7
100
AcDbMText
 10
484.66375750000003
 20
-48.800052000000022
 30
0.0
 40
6.1333280000000006
 41
0.0
 71
               1
 72
               1
  1
O
  7
Arial
 73
               1
 44
1.0
  0
MTEXT
  5
203
100
AcDbEntity
  8
2
 62
               7
100
AcDbMText
 10
490.66375750000003
 20
-48.800052000000022
 30
0.0
 40
6.1333280000000006
 41
0.0
 71
               1
 72
               1
  1
M
  7
Arial
 73
               1
 44
1.0
  0
MTEXT
  5
204
100
AcDbEntity
  8
2
 62
               7
100
AcDbMText
 10
322.31164750000005
 20
-59.447242000000017
 30
0.0
 40
6.1333280000000006
 41
0.0
 71
               1
 72
               1
  1
S
  7
Arial
 73
               1
 44
1.0
  0
MTEXT
  5
205
100
AcDbEntity
  8
2
 62
               7
100
AcDbMText
 10
328.31164750000005
 20
-59.447242000000017
 30
0.0
 40
6.1333280000000006
 41
0.0
 71
               1
 72
               1
  1
W
  7
Arial
 73
               1
 44
1.0
  0
MTEXT
  5
206
100
AcDbEntity
  8
2
 62
               7
100
AcDbMText
 10
334.31164749999999
 20
-59.447242000000017
 30
0.0
 40
6.1333280000000006
 41
0.0
 71
               1
 72
               1
  1
I
  7
Arial
 73
               1
 44
1.0
  0
MTEXT
  5
207
100
AcDbEntity
  8
2
 62
               7
100
AcDbMText
 10
340.31164749999999
 20
-59.447242000000017
 30
0.0
 40
6.1333280000000006
 41
0.0
 71
               1
 72
               1
  1
N
  7
Arial
 73
               1
 44
1.0
  0
MTEXT
  5
208
100
AcDbEntity
  8
2
 62
               7
100
AcDbMText
 10
346.31164750000005
 20
-59.447242000000017
 30
0.0
 40
6.1333280000000006
 41
0.0
 71
               1
 72
               1
  1
G
  7
Arial
 73
               1
 44
1.0
  0
MTEXT
  5
209
100
AcDbEntity
  8
2
 62
               7
100
AcDbMText
 10
358.31164750000005
 20
-59.447242000000017
 30
0.0
 40
6.1333280000000006
 41
0.0
 71
               1
 72
               1
  1
P
  7
Arial
 73
               1
 44
1.0
  0
MTEXT
  5
20A
100
AcDbEntity
  8
2
 62
               7
100
AcDbMText
 10
364.31164749999999
 20
-59.447242000000017
 30
0.0
 40
6.1333280000000006
 41
0.0
 71
               1
 72
               1
  1
A
  7
Arial
 73
               1
 44
1.0
  0
MTEXT
  5
20B
100
AcDbEntity
  8
2
 62
               7
100
AcDbMText
 10
370.31164749999999
 20
-59.447242000000017
 30
0.0
 40
6.1333280000000006
 41
0.0
 71
               1
 72
               1
  1
N
  7
Arial
 73
               1
 44
1.0
  0
MTEXT
  5
20C
100
AcDbEntity
  8
2
 62
               7
100
AcDbMText
 10
376.31164750000005
 20
-59.447242000000017
 30
0.0
 40
6.1333280000000006
 41
0.0
 71
               1
 72
               1
  1
E
  7
Arial
 73
               1
 44
1.0
  0
MTEXT
  5
20D
100
AcDbEntity
  8
2
 62
               7
100
AcDbMText
 10
382.31164750000005
 20
-59.447242000000017
 30
0.0
 40
6.1333280000000006
 41
0.0
 71
               1
 72
               1
  1
L
  7
Arial
 73
               1
 44
1.0
  0
MTEXT
  5
20E
100
AcDbEntity
  8
2
 62
               7
100
AcDbMText
 10
322.31164750000005
 20
-74.447242000000017
 30
0.0
 40
6.1333280000000006
 41
0.0
 71
               1
 72
               1
  1
R
  7
Arial
 73
               1
 44
1.0
  0
MTEXT
  5
20F
100
AcDbEntity
  8
2
 62
               7
100
AcDbMText
 10
328.31164750000005
 20
-74.447242000000017
 30
0.0
 40
6.1333280000000006
 41
0.0
 71
               1
 72
               1
  1
O
  7
Arial
 73
               1
 44
1.0
  0
MTEXT
  5
210
100
AcDbEntity
  8
2
 62
               7
100
AcDbMText
 10
334.31164749999999
 20
-74.447242000000017
 30
0.0
 40
6.1333280000000006
 41
0.0
 71
               1
 72
               1
  1
O
  7
Arial
 73
               1
 44
1.0
  0
MTEXT
  5
211
100
AcDbEntity
  8
2
 62
               7
100
AcDbMText
 10
340.31164749999999
 20
-74.447242000000017
 30
0.0
 40
6.1333280000000006
 41
0.0
 71
               1
 72
               1
  1
M
  7
Arial
 73
               1
 44
1.0
  0
MTEXT
  5
212
100
AcDbEntity
  8
2
 62
               7
100
AcDbMText
 10
29.275687499999997
 20
12.139408000000003
 30
0.0
 40
6.1333280000000006
 41
0.0
 71
               1
 72
               1
  1
P
  7
Arial
 73
               1
 44
1.0
  0
MTEXT
  5
213
100
AcDbEntity
  8
2
 62
               7
100
AcDbMText
 10
35.275687499999989
 20
12.139408000000003
 30
0.0
 40
6.1333280000000006
 41
0.0
 71
               1
 72
               1
  1
L
  7
Arial
 73
               1
 44
1.0
  0
MTEXT
  5
214
100
AcDbEntity
  8
2
 62
               7
100
AcDbMText
 10
41.275687499999989
 20
12.139408000000003
 30
0.0
 40
6.1333280000000006
 41
0.0
 71
               1
 72
               1
  1
A
  7
Arial
 73
               1
 44
1.0
  0
MTEXT
  5
215
100
AcDbEntity
  8
2
 62
               7
100
AcDbMText
 10
47.275687499999997
 20
12.139408000000003
 30
0.0
 40
6.1333280000000006
 41
0.0
 71
               1
 72
               1
  1
S
  7
Arial
 73
               1
 44
1.0
  0
MTEXT
  5
216
100
AcDbEntity
  8
2
 62
               7
100
AcDbMText
 10
53.275687499999989
 20
12.139408000000003
 30
0.0
 40
6.1333280000000006
 41
0.0
 71
               1
 72
               1
  1
T
  7
Arial
 73
               1
 44
1.0
  0
MTEXT
  5
217
100
AcDbEntity
  8
2
 62
               7
100
AcDbMText
 10
59.275687499999997
 20
12.139408000000003
 30
0.0
 40
6.1333280000000006
 41
0.0
 71
               1
 72
               1
  1
E
  7
Arial
 73
               1
 44
1.0
  0
MTEXT
  5
218
100
AcDbEntity
  8
2
 62
               7
100
AcDbMText
 10
65.275687499999989
 20
12.139408000000003
 30
0.0
 40
6.1333280000000006
 41
0.0
 71
               1
 72
               1
  1
R
  7
Arial
 73
               1
 44
1.0
  0
MTEXT
  5
219
100
AcDbEntity
  8
2
 62
               7
100
AcDbMText
 10
77.275687500000004
 20
12.139408000000003
 30
0.0
 40
6.1333280000000006
 41
0.0
 71
               1
 72
               1
  1
L
  7
Arial
 73
               1
 44
1.0
  0
MTEXT
  5
21A
100
AcDbEntity
  8
2
 62
               7
100
AcDbMText
 10
83.275687500000004
 20
12.139408000000003
 30
0.0
 40
6.1333280000000006
 41
0.0
 71
               1
 72
               1
  1
I
  7
Arial
 73
               1
 44
1.0
  0
MTEXT
  5
21B
100
AcDbEntity
  8
2
 62
               7
100
AcDbMText
 10
89.275687499999989
 20
12.139408000000003
 30
0.0
 40
6.1333280000000006
 41
0.0
 71
               1
 72
               1
  1
N
  7
Arial
 73
               1
 44
1.0
  0
MTEXT
  5
21C
100
AcDbEntity
  8
2
 62
               7
100
AcDbMText
 10
95.275687499999989
 20
12.139408000000003
 30
0.0
 40
6.1333280000000006
 41
0.0
 71
               1
 72
               1
  1
E
  7
Arial
 73
               1
 44
1.0
  0
MTEXT
  5
21D
100
AcDbEntity
  8
2
 62
               7
100
AcDbMText
 10
23.524517499999995
 20
-131.31570199999999
 30
0.0
 40
6.1333280000000006
 41
0.0
 71
               1
 72
               1
  1
S
  7
Arial
 73
               1
 44
1.0
  0
MTEXT
  5
21E
100
AcDbEntity
  8
2
 62
               7
100
AcDbMText
 10
29.524517499999998
 20
-131.31570199999999
 30
0.0
 40
6.1333280000000006
 41
0.0
 71
               1
 72
               1
  1
T
  7
Arial
 73
               1
 44
1.0
  0
MTEXT
  5
21F
100
AcDbEntity
  8
2
 62
               7
100
AcDbMText
 10
35.524517499999995
 20
-131.31570199999999
 30
0.0
 40
6.1333280000000006
 41
0.0
 71
               1
 72
               1
  1
A
  7
Arial
 73
               1
 44
1.0
  0
MTEXT
  5
220
100
AcDbEntity
  8
2
 62
               7
100
AcDbMText
 10
41.524517499999988
 20
-131.31570199999999
 30
0.0
 40
6.1333280000000006
 41
0.0
 71
               1
 72
               1
  1
G
  7
Arial
 73
               1
 44
1.0
  0
MTEXT
  5
221
100
AcDbEntity
  8
2
 62
               7
100
AcDbMText
 10
47.524517499999995
 20
-131.31570199999999
 30
0.0
 40
6.1333280000000006
 41
0.0
 71
               1
 72
               1
  1
E
  7
Arial
 73
               1
 44
1.0
  0
MTEXT
  5
222
100
AcDbEntity
  8
2
 62
               7
100
AcDbMText
 10
59.524517499999995
 20
-131.31570199999999
 30
0.0
 40
6.1333280000000006
 41
0.0
 71
               1
 72
               1
  1
L
  7
Arial
 73
               1
 44
1.0
  0
MTEXT
  5
223
100
AcDbEntity
  8
2
 62
               7
100
AcDbMText
 10
65.524517500000002
 20
-131.31570199999999
 30
0.0
 40
6.1333280000000006
 41
0.0
 71
               1
 72
               1
  1
I
  7
Arial
 73
               1
 44
1.0
  0
MTEXT
  5
224
100
AcDbEntity
  8
2
 62
               7
100
AcDbMText
 10
71.524517499999988
 20
-131.31570199999999
 30
0.0
 40
6.1333280000000006
 41
0.0
 71
               1
 72
               1
  1
F
  7
Arial
 73
               1
 44
1.0
  0
MTEXT
  5
225
100
AcDbEntity
  8
2
 62
               7
100
AcDbMText
 10
77.524517499999988
 20
-131.31570199999999
 30
0.0
 40
6.1333280000000006
 41
0.0
 71
               1
 72
               1
  1
T
  7
Arial
 73
               1
 44
1.0
  0
MTEXT
  5
226
100
AcDbEntity
  8
2
 62
               7
100
AcDbMText
 10
455.70663750000006
 20
364.87408800000003
 30
0.0
 40
6.1333280000000006
 41
0.0
 71
               1
 72
               1
  1
S
  7
Arial
 73
               1
 44
1.0
  0
MTEXT
  5
227
100
AcDbEntity
  8
2
 62
               7
100
AcDbMText
 10
461.7066375
 20
364.87408800000003
 30
0.0
 40
6.1333280000000006
 41
0.0
 71
               1
 72
               1
  1
H
  7
Arial
 73
               1
 44
1.0
  0
MTEXT
  5
228
100
AcDbEntity
  8
2
 62
               7
100
AcDbMText
 10
467.7066375
 20
364.87408800000003
 30
0.0
 40
6.1333280000000006
 41
0.0
 71
               1
 72
               1
  1
E
  7
Arial
 73
               1
 44
1.0
  0
MTEXT
  5
229
100
AcDbEntity
  8
2
 62
               7
100
AcDbMText
 10
473.70663750000006
 20
364.87408800000003
 30
0.0
 40
6.1333280000000006
 41
0.0
 71
               1
 72
               1
  1
L
  7
Arial
 73
               1
 44
1.0
  0
MTEXT
  5
22A
100
AcDbEntity
  8
2
 62
               7
100
AcDbMText
 10
479.70663750000006
 20
364.87408800000003
 30
0.0
 40
6.1333280000000006
 41
0.0
 71
               1
 72
               1
  1
L
  7
Arial
 73
               1
 44
1.0
  0
MTEXT
  5
22B
100
AcDbEntity
  8
2
 62
               7
100
AcDbMText
 10
491.7066375
 20
364.87408800000003
 30
0.0
 40
6.1333280000000006
 41
0.0
 71
               1
 72
               1
  1
R
  7
Arial
 73
               1
 44
1.0
  0
MTEXT
  5
22C
100
AcDbEntity
  8
2
 62
               7
100
AcDbMText
 10
497.7066375
 20
364.87408800000003
 30
0.0
 40
6.1333280000000006
 41
0.0
 71
               1
 72
               1
  1
E
  7
Arial
 73
               1
 44
1.0
  0
MTEXT
  5
22D
100
AcDbEntity
  8
2
 62
               7
100
AcDbMText
 10
503.70663750000006
 20
364.87408800000003
 30
0.0
 40
6.1333280000000006
 41
0.0
 71
               1
 72
               1
  1
A
  7
Arial
 73
               1
 44
1.0
  0
MTEXT
  5
22E
100
AcDbEntity
  8
2
 62
               7
100
AcDbMText
 10
509.70663750000006
 20
364.87408800000003
 30
0.0
 40
6.1333280000000006
 41
0.0
 71
               1
 72
               1
  1
R
  7
Arial
 73
               1
 44
1.0
  0
MTEXT
  5
22F
100
AcDbEntity
  8
2
 62
               7
100
AcDbMText
 10
455.70663750000006
 20
349.87408800000003
 30
0.0
 40
6.1333280000000006
 41
0.0
 71
               1
 72
               1
  1
D
  7
Arial
 73
               1
 44
1.0
  0
MTEXT
  5
230
100
AcDbEntity
  8
2
 62
               7
100
AcDbMText
 10
461.7066375
 20
349.87408800000003
 30
0.0
 40
6.1333280000000006
 41
0.0
 71
               1
 72
               1
  1
R
  7
Arial
 73
               1
 44
1.0
  0
MTEXT
  5
231
100
AcDbEntity
  8
2
 62
               7
100
AcDbMText
 10
467.7066375
 20
349.87408800000003
 30
0.0
 40
6.1333280000000006
 41
0.0
 71
               1
 72
               1
  1
I
  7
Arial
 73
               1
 44
1.0
  0
MTEXT
  5
232
100
AcDbEntity
  8
2
 62
               7
100
AcDbMText
 10
473.70663750000006
 20
349.87408800000003
 30
0.0
 40
6.1333280000000006
 41
0.0
 71
               1
 72
               1
  1
V
  7
Arial
 73
               1
 44
1.0
  0
MTEXT
  5
233
100
AcDbEntity
  8
2
 62
               7
100
AcDbMText
 10
479.70663750000006
 20
349.87408800000003
 30
0.0
 40
6.1333280000000006
 41
0.0
 71
               1
 72
               1
  1
E
  7
Arial
 73
               1
 44
1.0
  0
MTEXT
  5
234
100
AcDbEntity
  8
2
 62
               7
100
AcDbMText
 10
491.7066375
 20
349.87408800000003
 30
0.0
 40
6.1333280000000006
 41
0.0
 71
               1
 72
               1
  1
C
  7
Arial
 73
               1
 44
1.0
  0
MTEXT
  5
235
100
AcDbEntity
  8
2
 62
               7
100
AcDbMText
 10
497.7066375
 20
349.87408800000003
 30
0.0
 40
6.1333280000000006
 41
0.0
 71
               1
 72
               1
  1
A
  7
Arial
 73
               1
 44
1.0
  0
MTEXT
  5
236
100
AcDbEntity
  8
2
 62
               7
100
AcDbMText
 10
503.70663750000006
 20
349.87408800000003
 30
0.0
 40
6.1333280000000006
 41
0.0
 71
               1
 72
               1
  1
G
  7
Arial
 73
               1
 44
1.0
  0
MTEXT
  5
237
100
AcDbEntity
  8
2
 62
               7
100
AcDbMText
 10
509.70663750000006
 20
349.87408800000003
 30
0.0
 40
6.1333280000000006
 41
0.0
 71
               1
 72
               1
  1
E
  7
Arial
 73
               1
 44
1.0
  0
MTEXT
  5
238
100
AcDbEntity
  8
2
 62
               7
100
AcDbMText
 10
-8.2097225000000051
 20
-102.15872200000001
 30
0.0
 40
18.399999999999999
 41
0.0
 71
               1
 72
               1
  1
C
  7
Arial
 73
               1
 44
1.0
  0
MTEXT
  5
239
100
AcDbEntity
  8
2
 62
               7
100
AcDbMText
 10
-4.9233425000000057
 20
-105.25891200000001
 30
0.0
 40
18.399999999999999
 41
0.0
 71
               1
 72
               1
  1
L
  7
Arial
 73
               1
 44
1.0
  0
LINE
  5
23A
100
AcDbEntity
  8
1
370
               5
  6
Continuous
 62
               7
100
AcDbLine
 10
-441.70107250000001
 20
314.121758
 30
0.0
 11
-417.70107249999995
 21
314.121758
 31
0.0
  0
LINE
  5
23B
100
AcDbEntity
  8
1
370
               5
  6
Continuous
 62
               7
100
AcDbLine
 10
-417.70107249999995
 20
314.121758
 30
0.0
 11
-474.74407249999996
 21
350.55547799999999
 31
0.0
  0
LINE
  5
23C
100
AcDbEntity
  8
1
370
              30
  6
Continuous
 62
               7
100
AcDbLine
 10
-474.74407249999996
 20
350.55546800000002
 30
0.0
 11
-473.36193249999997
 21
347.89284799999996
 31
0.0
  0
LINE
  5
23D
100
AcDbEntity
  8
1
370
              30
  6
Continuous
 62
               7
100
AcDbLine
 10
-474.74407249999996
 20
350.55547799999999
 30
0.0
 11
-471.74709249999995
 21
350.42113800000004
 31
0.0
  0
LINE
  5
23E
100
AcDbEntity
  8
1
370
              30
  6
Continuous
 62
               7
100
AcDbLine
 10
-473.36193249999997
 20
347.89285800000005
 30
0.0
 11
-471.74709249999995
 21
350.42113800000004
 31
0.0
  0
LINE
  5
23F
100
AcDbEntity
  8
1
370
               5
  6
Continuous
 62
               7
100
AcDbLine
 10
321.53307750000005
 20
339.92897800000003
 30
0.0
 11
345.53307750000005
 21
339.92897800000003
 31
0.0
  0
LINE
  5
240
100
AcDbEntity
  8
1
370
               5
  6
Continuous
 62
               7
100
AcDbLine
 10
345.53307750000005
 20
339.92897800000003
 30
0.0
 11
298.52099750000002
 21
312.60369800000001
 31
0.0
  0
LINE
  5
241
100
AcDbEntity
  8
1
370
              15
  6
Continuous
 62
               7
100
AcDbLine
 10
298.52098749999999
 20
312.60369800000001
 30
0.0
 11
301.52098750000005
 21
312.61241799999999
 31
0.0
  0
LINE
  5
242
100
AcDbEntity
  8
1
370
              15
  6
Continuous
 62
               7
100
AcDbLine
 10
298.52098749999999
 20
312.60369800000001
 30
0.0
 11
300.01342750000003
 21
315.20613800000001
 31
0.0
  0
LINE
  5
243
100
AcDbEntity
  8
1
370
              15
  6
Continuous
 62
               7
100
AcDbLine
 10
301.52098750000005
 20
312.61241799999999
 30
0.0
 11
300.01342750000003
 21
315.20613800000001
 31
0.0
  0
LINE
  5
244
100
AcDbEntity
  8
1
370
               5
  6
Continuous
 62
               7
100
AcDbLine
 10
471.1116275
 20
-36.856572
 30
0.0
 11
447.1116275
 21
-36.856572
 31
0.0
  0
LINE
  5
245
100
AcDbEntity
  8
1
370
               5
  6
Continuous
 62
               7
100
AcDbLine
 10
447.1116275
 20
-36.856572
 30
0.0
 11
455.18020750000005
 21
-19.246932000000015
 31
0.0
  0
LINE
  5
246
100
AcDbEntity
  8
1
370
              15
  6
Continuous
 62
               7
100
AcDbLine
 10
455.18020750000005
 20
-19.246932000000015
 30
0.0
 11
452.73430750000006
 21
-20.98405200000002
 31
0.0
  0
LINE
  5
247
100
AcDbEntity
  8
1
370
              15
  6
Continuous
 62
               7
100
AcDbLine
 10
455.18020750000005
 20
-19.246932000000015
 30
0.0
 11
455.46166750000003
 21
-22.233691999999991
 31
0.0
  0
LINE
  5
248
100
AcDbEntity
  8
1
370
              15
  6
Continuous
 62
               7
100
AcDbLine
 10
452.73430750000006
 20
-20.984061999999994
 30
0.0
 11
455.46166750000003
 21
-22.233701999999994
 31
0.0
  0
LINE
  5
249
100
AcDbEntity
  8
1
370
               5
  6
Continuous
 62
               7
100
AcDbLine
 10
-483.88998250000003
 20
-48.090302000000008
 30
0.0
 11
-459.88998250000003
 21
-48.090302000000008
 31
0.0
  0
LINE
  5
24A
100
AcDbEntity
  8
1
370
               5
  6
Continuous
 62
               7
100
AcDbLine
 10
-459.88998250000003
 20
-48.090302000000008
 30
0.0
 11
-505.72194249999995
 21
-18.943301999999989
 31
0.0
  0
LINE
  5
24B
100
AcDbEntity
  8
1
370
              30
  6
Continuous
 62
               7
100
AcDbLine
 10
-505.72195249999999
 20
-18.943301999999989
 30
0.0
 11
-504.33459249999999
 21
-21.603241999999995
 31
0.0
  0
LINE
  5
24C
100
AcDbEntity
  8
1
370
              30
  6
Continuous
 62
               7
100
AcDbLine
 10
-505.72195249999999
 20
-18.943301999999989
 30
0.0
 11
-502.7246925
 21
-19.071782000000013
 31
0.0
  0
LINE
  5
24D
100
AcDbEntity
  8
1
370
              30
  6
Continuous
 62
               7
100
AcDbLine
 10
-504.33459249999999
 20
-21.603241999999995
 30
0.0
 11
-502.7246925
 21
-19.071782000000013
 31
0.0
  0
LINE
  5
24E
100
AcDbEntity
  8
1
370
               5
  6
Continuous
 62
               7
100
AcDbLine
 10
-434.3254925
 20
-42.018012000000027
 30
0.0
 11
-458.3254925
 21
-42.018012000000027
 31
0.0
  0
LINE
  5
24F
100
AcDbEntity
  8
1
370
              30
  6
Continuous
 62
               7
100
AcDbLine
 10
-458.3254925
 20
-42.018022000000002
 30
0.0
 11
-449.66689250000002
 21
-19.550542000000007
 31
0.0
  0
LINE
  5
250
100
AcDbEntity
  8
1
370
              30
  6
Continuous
 62
               7
100
AcDbLine
 10
-449.66690249999999
 20
-19.550532000000004
 30
0.0
 11
-452.00082249999997
 21
-21.435412000000014
 31
0.0
  0
LINE
  5
251
100
AcDbEntity
  8
1
370
              30
  6
Continuous
 62
               7
100
AcDbLine
 10
-449.66690249999999
 20
-19.550542000000007
 30
0.0
 11
-449.20150249999995
 21
-22.51422199999999
 31
0.0
  0
LINE
  5
252
100
AcDbEntity
  8
1
370
              30
  6
Continuous
 62
               7
100
AcDbLine
 10
-452.00082249999997
 20
-21.435402000000011
 30
0.0
 11
-449.20150249999995
 21
-22.51422199999999
 31
0.0
  0
LINE
  5
253
100
AcDbEntity
  8
1
370
               5
  6
Continuous
 62
               7
100
AcDbLine
 10
-497.46120249999996
 20
50.280787999999987
 30
0.0
 11
-473.46120250000001
 21
50.280787999999987
 31
0.0
  0
LINE
  5
254
100
AcDbEntity
  8
1
370
               5
  6
Continuous
 62
               7
100
AcDbLine
 10
-473.46121249999999
 20
50.28079799999999
 30
0.0
 11
-532.86443250000013
 21
18.097657999999981
 31
0.0
  0
LINE
  5
255
100
AcDbEntity
  8
1
370
              30
  6
Continuous
 62
               7
100
AcDbLine
 10
-532.86443250000013
 20
18.097647999999992
 30
0.0
 11
-529.86553250000009
 21
18.016377999999989
 31
0.0
  0
LINE
  5
256
100
AcDbEntity
  8
1
370
              30
  6
Continuous
 62
               7
100
AcDbLine
 10
-532.86443250000013
 20
18.097647999999992
 30
0.0
 11
-531.29461250000008
 21
20.654137999999989
 31
0.0
  0
LINE
  5
257
100
AcDbEntity
  8
1
370
              30
  6
Continuous
 62
               7
100
AcDbLine
 10
-529.86553250000009
 20
18.016387999999992
 30
0.0
 11
-531.29461250000008
 21
20.654147999999992
 31
0.0
  0
LINE
  5
258
100
AcDbEntity
  8
1
370
              15
  6
Continuous
 62
               7
100
AcDbLine
 10
-277.23583249999996
 20
35.746217999999985
 30
0.0
 11
-277.23583249999996
 21
23.746217999999999
 31
0.0
  0
LINE
  5
259
100
AcDbEntity
  8
1
370
              15
  6
Continuous
 62
               7
100
AcDbLine
 10
-277.23583249999996
 20
29.746217999999985
 30
0.0
 11
-274.63775249999998
 21
28.246217999999985
 31
0.0
  0
LINE
  5
25A
100
AcDbEntity
  8
1
370
              15
  6
Continuous
 62
               7
100
AcDbLine
 10
-277.23583249999996
 20
29.746217999999985
 30
0.0
 11
-274.63775249999998
 21
31.246217999999999
 31
0.0
  0
LINE
  5
25B
100
AcDbEntity
  8
1
370
              15
  6
Continuous
 62
               7
100
AcDbLine
 10
-274.63775249999998
 20
28.246217999999985
 30
0.0
 11
-274.63775249999998
 21
31.246217999999999
 31
0.0
  0
LINE
  5
25C
100
AcDbEntity
  8
1
370
               5
  6
Continuous
 62
               7
100
AcDbLine
 10
-277.23584249999999
 20
29.746217999999985
 30
0.0
 11
-23.735822500000005
 21
29.746217999999985
 31
0.0
  0
LINE
  5
25D
100
AcDbEntity
  8
1
370
               5
  6
Continuous
 62
               7
100
AcDbLine
 10
277.76414750000004
 20
29.746217999999985
 30
0.0
 11
24.264167499999999
 21
29.746217999999985
 31
0.0
  0
LINE
  5
25E
100
AcDbEntity
  8
1
370
              15
  6
Continuous
 62
               7
100
AcDbLine
 10
277.76415750000007
 20
35.746217999999985
 30
0.0
 11
277.76415750000007
 21
23.746217999999999
 31
0.0
  0
LINE
  5
25F
100
AcDbEntity
  8
1
370
              15
  6
Continuous
 62
               7
100
AcDbLine
 10
277.76415750000007
 20
29.746217999999985
 30
0.0
 11
275.16607750000003
 21
31.246217999999999
 31
0.0
  0
LINE
  5
260
100
AcDbEntity
  8
1
370
              15
  6
Continuous
 62
               7
100
AcDbLine
 10
277.76415750000007
 20
29.746217999999985
 30
0.0
 11
275.16607750000003
 21
28.246217999999985
 31
0.0
  0
LINE
  5
261
100
AcDbEntity
  8
1
370
              15
  6
Continuous
 62
               7
100
AcDbLine
 10
275.16606750000005
 20
31.246217999999999
 30
0.0
 11
275.16606750000005
 21
28.246217999999985
 31
0.0
  0
MTEXT
  5
262
100
AcDbEntity
  8
1
 62
               7
100
AcDbMText
 10
-17.735822500000005
 20
26.746207999999996
 30
0.0
 40
6.1333280000000006
 41
0.0
 71
               1
 72
               1
  1
4
  7
Arial
 73
               1
 44
1.0
  0
MTEXT
  5
263
100
AcDbEntity
  8
1
 62
               7
100
AcDbMText
 10
-11.735822500000006
 20
26.746207999999996
 30
0.0
 40
6.1333280000000006
 41
0.0
 71
               1
 72
               1
  1
6
  7
Arial
 73
               1
 44
1.0
  0
MTEXT
  5
264
100
AcDbEntity
  8
1
 62
               7
100
AcDbMText
 10
-5.7358225000000047
 20
26.746207999999996
 30
0.0
 40
6.1333280000000006
 41
0.0
 71
               1
 72
               1
  1
'
  7
Arial
 73
               1
 44
1.0
  0
MTEXT
  5
265
100
AcDbEntity
  8
1
 62
               7
100
AcDbMText
 10
12.264177499999995
 20
26.746207999999996
 30
0.0
 40
6.1333280000000006
 41
0.0
 71
               1
 72
               1
  1
3
  7
Arial
 73
               1
 44
1.0
  0
MTEXT
  5
266
100
AcDbEntity
  8
1
 62
               7
100
AcDbMText
 10
18.264177499999995
 20
26.746207999999996
 30
0.0
 40
6.1333280000000006
 41
0.0
 71
               1
 72
               1
  1
"
  7
Arial
 73
               1
 44
1.0
  0
LINE
  5
267
100
AcDbEntity
  8
1
370
              15
  6
Continuous
 62
               7
100
AcDbLine
 10
-167.73582250000001
 20
-0.2541520000000048
 30
0.0
 11
-155.73582250000001
 21
-0.2545120000000054
 31
0.0
  0
LINE
  5
268
100
AcDbEntity
  8
1
370
              15
  6
Continuous
 62
               7
100
AcDbLine
 10
-161.73582250000001
 20
-0.2543220000000019
 30
0.0
 11
-160.23574250000001
 21
2.3436979999999892
 31
0.0
  0
LINE
  5
269
100
AcDbEntity
  8
1
370
              15
  6
Continuous
 62
               7
100
AcDbLine
 10
-161.73582250000001
 20
-0.2543320000000051
 30
0.0
 11
-163.23574250000001
 21
2.3437879999999893
 31
0.0
  0
LINE
  5
26A
100
AcDbEntity
  8
1
370
              15
  6
Continuous
 62
               7
100
AcDbLine
 10
-160.23574250000001
 20
2.3436979999999892
 30
0.0
 11
-163.23574250000001
 21
2.3437979999999925
 31
0.0
  0
LINE
  5
26B
100
AcDbEntity
  8
1
370
               5
  6
Continuous
 62
               7
100
AcDbLine
 10
-161.73581250000001
 20
-0.2543320000000051
 30
0.0
 11
-161.73591250000001
 21
152.24566799999999
 31
0.0
  0
LINE
  5
26C
100
AcDbEntity
  8
1
370
               5
  6
Continuous
 62
               7
100
AcDbLine
 10
-161.73582250000001
 20
310.74565799999999
 30
0.0
 11
-161.73572250000001
 21
158.24565799999999
 31
0.0
  0
LINE
  5
26D
100
AcDbEntity
  8
1
370
              15
  6
Continuous
 62
               7
100
AcDbLine
 10
-167.73582250000001
 20
310.74583799999999
 30
0.0
 11
-155.73582250000001
 21
310.74547800000005
 31
0.0
  0
LINE
  5
26E
100
AcDbEntity
  8
1
370
              15
  6
Continuous
 62
               7
100
AcDbLine
 10
-161.73582250000001
 20
310.74565799999999
 30
0.0
 11
-163.23590250000001
 21
308.14763800000003
 31
0.0
  0
LINE
  5
26F
100
AcDbEntity
  8
1
370
              15
  6
Continuous
 62
               7
100
AcDbLine
 10
-161.73582250000001
 20
310.74566800000002
 30
0.0
 11
-160.23590250000001
 21
308.14754800000003
 31
0.0
  0
LINE
  5
270
100
AcDbEntity
  8
1
370
              15
  6
Continuous
 62
               7
100
AcDbLine
 10
-163.23589250000003
 20
308.147648
 30
0.0
 11
-160.23589250000001
 21
308.14754800000003
 31
0.0
  0
MTEXT
  5
271
100
AcDbEntity
  8
1
 62
               7
100
AcDbMText
 10
-179.73582250000001
 20
152.24566799999999
 30
0.0
 40
6.1333280000000006
 41
0.0
 71
               1
 72
               1
  1
2
  7
Arial
 73
               1
 44
1.0
  0
MTEXT
  5
272
100
AcDbEntity
  8
1
 62
               7
100
AcDbMText
 10
-173.73582250000001
 20
152.24566799999999
 30
0.0
 40
6.1333280000000006
 41
0.0
 71
               1
 72
               1
  1
5
  7
Arial
 73
               1
 44
1.0
  0
MTEXT
  5
273
100
AcDbEntity
  8
1
 62
               7
100
AcDbMText
 10
-167.73582250000001
 20
152.24566799999999
 30
0.0
 40
6.1333280000000006
 41
0.0
 71
               1
 72
               1
  1
'
  7
Arial
 73
               1
 44
1.0
  0
MTEXT
  5
274
100
AcDbEntity
  8
1
 62
               7
100
AcDbMText
 10
-155.73582250000001
 20
152.24566799999999
 30
0.0
 40
6.1333280000000006
 41
0.0
 71
               1
 72
               1
  1
1
  7
Arial
 73
               1
 44
1.0
  0
MTEXT
  5
275
100
AcDbEntity
  8
1
 62
               7
100
AcDbMText
 10
-149.73582250000001
 20
152.24566799999999
 30
0.0
 40
6.1333280000000006
 41
0.0
 71
               1
 72
               1
  1
1
  7
Arial
 73
               1
 44
1.0
  0
MTEXT
  5
276
100
AcDbEntity
  8
1
 62
               7
100
AcDbMText
 10
-143.73582250000001
 20
152.24566799999999
 30
0.0
 40
6.1333280000000006
 41
0.0
 71
               1
 72
               1
  1
"
  7
Arial
 73
               1
 44
1.0
  0
LINE
  5
277
100
AcDbEntity
  8
1
370
              15
  6
Continuous
 62
               7
100
AcDbLine
 10
-167.99999250000002
 20
-144.000362
 30
0.0
 11
-155.99999250000002
 21
-144.000722
 31
0.0
  0
LINE
  5
278
100
AcDbEntity
  8
1
370
              15
  6
Continuous
 62
               7
100
AcDbLine
 10
-161.99999250000002
 20
-144.000542
 30
0.0
 11
-160.49991250000002
 21
-141.40252199999998
 31
0.0
  0
LINE
  5
279
100
AcDbEntity
  8
1
370
              15
  6
Continuous
 62
               7
100
AcDbLine
 10
-161.99999250000002
 20
-144.000542
 30
0.0
 11
-163.49991249999999
 21
-141.402422
 31
0.0
  0
LINE
  5
27A
100
AcDbEntity
  8
1
370
              15
  6
Continuous
 62
               7
100
AcDbLine
 10
-160.49992250000003
 20
-141.40252199999998
 30
0.0
 11
-163.49992250000003
 21
-141.402422
 31
0.0
  0
LINE
  5
27B
100
AcDbEntity
  8
1
370
               5
  6
Continuous
 62
               7
100
AcDbLine
 10
-161.99999250000002
 20
-144.000542
 30
0.0
 11
-162.00009250000002
 21
-87.000541999999996
 31
0.0
  0
LINE
  5
27C
100
AcDbEntity
  8
1
370
               5
  6
Continuous
 62
               7
100
AcDbLine
 10
-162.00000250000002
 20
-24.000541999999996
 30
0.0
 11
-161.99990250000002
 21
-81.000542000000024
 31
0.0
  0
LINE
  5
27D
100
AcDbEntity
  8
1
370
              15
  6
Continuous
 62
               7
100
AcDbLine
 10
-167.99999250000002
 20
-24.000361999999996
 30
0.0
 11
-155.99999250000002
 21
-24.000721999999996
 31
0.0
  0
LINE
  5
27E
100
AcDbEntity
  8
1
370
              15
  6
Continuous
 62
               7
100
AcDbLine
 10
-161.99999250000002
 20
-24.000532000000021
 30
0.0
 11
-163.50007250000002
 21
-26.598572000000019
 31
0.0
  0
LINE
  5
27F
100
AcDbEntity
  8
1
370
              15
  6
Continuous
 62
               7
100
AcDbLine
 10
-161.99999250000002
 20
-24.000541999999996
 30
0.0
 11
-160.50007250000002
 21
-26.598662000000019
 31
0.0
  0
LINE
  5
280
100
AcDbEntity
  8
1
370
              15
  6
Continuous
 62
               7
100
AcDbLine
 10
-163.50007250000002
 20
-26.598562000000015
 30
0.0
 11
-160.50007250000002
 21
-26.598662000000019
 31
0.0
  0
MTEXT
  5
281
100
AcDbEntity
  8
1
 62
               7
100
AcDbMText
 10
-180.00000250000002
 20
-87.000552000000027
 30
0.0
 40
6.1333280000000006
 41
0.0
 71
               1
 72
               1
  1
1
  7
Arial
 73
               1
 44
1.0
  0
MTEXT
  5
282
100
AcDbEntity
  8
1
 62
               7
100
AcDbMText
 10
-174.00000250000002
 20
-87.000552000000027
 30
0.0
 40
6.1333280000000006
 41
0.0
 71
               1
 72
               1
  1
0
  7
Arial
 73
               1
 44
1.0
  0
MTEXT
  5
283
100
AcDbEntity
  8
1
 62
               7
100
AcDbMText
 10
-168.00000249999999
 20
-87.000552000000027
 30
0.0
 40
6.1333280000000006
 41
0.0
 71
               1
 72
               1
  1
'
  7
Arial
 73
               1
 44
1.0
  0
MTEXT
  5
284
100
AcDbEntity
  8
1
 62
               7
100
AcDbMText
 10
-150.00000250000002
 20
-87.000552000000027
 30
0.0
 40
6.1333280000000006
 41
0.0
 71
               1
 72
               1
  1
0
  7
Arial
 73
               1
 44
1.0
  0
MTEXT
  5
285
100
AcDbEntity
  8
1
 62
               7
100
AcDbMText
 10
-144.00000250000002
 20
-87.000552000000027
 30
0.0
 40
6.1333280000000006
 41
0.0
 71
               1
 72
               1
  1
"
  7
Arial
 73
               1
 44
1.0
  0
LINE
  5
286
100
AcDbEntity
  8
0
370
              15
  6
Continuous
 62
               7
100
AcDbLine
 10
476.99999750000006
 20
4.0000079999999798
 30
0.0
 11
506.99999750000006
 21
4.0000079999999798
 31
0.0
  0
MTEXT
  5
287
100
AcDbEntity
  8
3
 62
               7
100
AcDbMText
 10
522.32055749999995
 20
5.1382779999999855
 30
0.0
 40
4.0888879999999999
 41
0.0
 71
               1
 72
               1
  1
A
  7
Arial
 73
               1
 44
1.0
  0
LINE
  5
288
100
AcDbEntity
  8
0
370
              15
  6
Continuous
 62
               7
100
AcDbLine
 10
476.99999750000006
 20
13.000007999999994
 30
0.0
 11
506.99999750000006
 21
13.000007999999994
 31
0.0
  0
MTEXT
  5
289
100
AcDbEntity
  8
3
 62
               7
100
AcDbMText
 10
522.32055749999995
 20
14.157067999999995
 30
0.0
 40
4.0888879999999999
 41
0.0
 71
               1
 72
               1
  1
1
  7
Arial
 73
               1
 44
1.0
  0
LINE
  5
28A
100
AcDbEntity
  8
0
370
              15
  6
Continuous
 62
               7
100
AcDbLine
 10
476.99999750000006
 20
22.000007999999994
 30
0.0
 11
506.99999750000006
 21
22.000007999999994
 31
0.0
  0
MTEXT
  5
28B
100
AcDbEntity
  8
3
 62
               7
100
AcDbMText
 10
522.32055749999995
 20
23.175857999999991
 30
0.0
 40
4.0888879999999999
 41
0.0
 71
               1
 72
               1
  1
2
  7
Arial
 73
               1
 44
1.0
  0
LINE
  5
28C
100
AcDbEntity
  8
0
370
              15
  6
Continuous
 62
               7
100
AcDbLine
 10
476.99999750000006
 20
28.000007999999994
 30
0.0
 11
506.99999750000006
 21
28.000007999999994
 31
0.0
  0
MTEXT
  5
28D
100
AcDbEntity
  8
3
 62
               7
100
AcDbMText
 10
522.32055749999995
 20
29.094437999999997
 30
0.0
 40
4.0888879999999999
 41
0.0
 71
               1
 72
               1
  1
3
  7
Arial
 73
               1
 44
1.0
  0
LINE
  5
28E
100
AcDbEntity
  8
0
370
              15
  6
Continuous
 62
               7
100
AcDbLine
 10
476.99999750000006
 20
43.000007999999994
 30
0.0
 11
506.99999750000006
 21
43.000007999999994
 31
0.0
  0
MTEXT
  5
28F
100
AcDbEntity
  8
3
 62
               7
100
AcDbMText
 10
522.04675750000001
 20
44.031807999999984
 30
0.0
 40
4.0888879999999999
 41
0.0
 71
               1
 72
               1
  1
B
  7
Arial
 73
               1
 44
1.0
  0
LINE
  5
290
100
AcDbEntity
  8
0
370
              15
  6
Continuous
 62
               7
100
AcDbLine
 10
476.99999750000006
 20
67.000007999999994
 30
0.0
 11
506.99999750000006
 21
67.000007999999994
 31
0.0
  0
MTEXT
  5
291
100
AcDbEntity
  8
3
 62
               7
100
AcDbMText
 10
521.77288749999991
 20
67.987967999999995
 30
0.0
 40
4.0888879999999999
 41
0.0
 71
               1
 72
               1
  1
4
  7
Arial
 73
               1
 44
1.0
  0
LINE
  5
292
100
AcDbEntity
  8
0
370
              15
  6
Continuous
 62
               7
100
AcDbLine
 10
476.99999750000006
 20
73.000007999999994
 30
0.0
 11
506.99999750000006
 21
73.000007999999994
 31
0.0
  0
MTEXT
  5
293
100
AcDbEntity
  8
3
 62
               7
100
AcDbMText
 10
522.04668749999996
 20
74.188397999999992
 30
0.0
 40
4.0888879999999999
 41
0.0
 71
               1
 72
               1
  1
5
  7
Arial
 73
               1
 44
1.0
  0
LINE
  5
294
100
AcDbEntity
  8
0
370
              15
  6
Continuous
 62
               7
100
AcDbLine
 10
476.99999750000006
 20
79.000007999999994
 30
0.0
 11
506.99999750000006
 21
79.000007999999994
 31
0.0
  0
MTEXT
  5
295
100
AcDbEntity
  8
3
 62
               7
100
AcDbMText
 10
522.04668749999996
 20
80.106967999999995
 30
0.0
 40
4.0888879999999999
 41
0.0
 71
               1
 72
               1
  1
6
  7
Arial
 73
               1
 44
1.0
  0
LINE
  5
296
100
AcDbEntity
  8
0
370
              15
  6
Continuous
 62
               7
100
AcDbLine
 10
476.99999750000006
 20
85.000007999999994
 30
0.0
 11
506.99999750000006
 21
85.000007999999994
 31
0.0
  0
LINE
  5
297
100
AcDbEntity
  8
0
370
              15
  6
Continuous
 62
               7
100
AcDbLine
 10
476.99999750000006
 20
91.000007999999994
 30
0.0
 11
506.99999750000006
 21
91.000007999999994
 31
0.0
  0
LINE
  5
298
100
AcDbEntity
  8
0
370
              15
  6
Continuous
 62
               7
100
AcDbLine
 10
476.99999750000006
 20
91.000007999999994
 30
0.0
 11
506.99999750000006
 21
91.000007999999994
 31
0.0
  0
LINE
  5
299
100
AcDbEntity
  8
0
370
              15
  6
Continuous
 62
               7
100
AcDbLine
 10
476.99999750000006
 20
97.000007999999994
 30
0.0
 11
506.99999750000006
 21
97.000007999999994
 31
0.0
  0
LINE
  5
29A
100
AcDbEntity
  8
0
370
              15
  6
Continuous
 62
               7
100
AcDbLine
 10
476.99999750000006
 20
103.00000799999999
 30
0.0
 11
506.99999750000006
 21
103.00000799999999
 31
0.0
  0
LINE
  5
29B
100
AcDbEntity
  8
0
370
              15
  6
Continuous
 62
               7
100
AcDbLine
 10
476.99999750000006
 20
115.00000799999999
 30
0.0
 11
506.99999750000006
 21
115.00000799999999
 31
0.0
  0
LINE
  5
29C
100
AcDbEntity
  8
0
370
              15
  6
Continuous
 62
               7
100
AcDbLine
 10
476.99999750000006
 20
121.00000799999999
 30
0.0
 11
506.99999750000006
 21
121.00000799999999
 31
0.0
  0
LINE
  5
29D
100
AcDbEntity
  8
0
370
              15
  6
Continuous
 62
               7
100
AcDbLine
 10
476.99999750000006
 20
127.00000799999999
 30
0.0
 11
506.99999750000006
 21
127.00000799999999
 31
0.0
  0
LINE
  5
29E
100
AcDbEntity
  8
0
370
              15
  6
Continuous
 62
               7
100
AcDbLine
 10
476.99999750000006
 20
133.00000800000001
 30
0.0
 11
506.99999750000006
 21
133.00000800000001
 31
0.0
  0
LINE
  5
29F
100
AcDbEntity
  8
0
370
              15
  6
Continuous
 62
               7
100
AcDbLine
 10
476.99999750000006
 20
138.99999800000001
 30
0.0
 11
506.99999750000006
 21
138.99999800000001
 31
0.0
  0
LINE
  5
2A0
100
AcDbEntity
  8
0
370
              15
  6
Continuous
 62
               7
100
AcDbLine
 10
476.99999750000006
 20
144.99999800000001
 30
0.0
 11
506.99999750000006
 21
144.99999800000001
 31
0.0
  0
LINE
  5
2A1
100
AcDbEntity
  8
0
370
              15
  6
Continuous
 62
               7
100
AcDbLine
 10
476.99999750000006
 20
150.99999800000001
 30
0.0
 11
506.99999750000006
 21
150.99999800000001
 31
0.0
  0
LINE
  5
2A2
100
AcDbEntity
  8
0
370
              15
  6
Continuous
 62
               7
100
AcDbLine
 10
476.99999750000006
 20
156.99999800000001
 30
0.0
 11
506.99999750000006
 21
156.99999800000001
 31
0.0
  0
LINE
  5
2A3
100
AcDbEntity
  8
0
370
              15
  6
Continuous
 62
               7
100
AcDbLine
 10
476.99999750000006
 20
162.99999800000001
 30
0.0
 11
506.99999750000006
 21
162.99999800000001
 31
0.0
  0
LINE
  5
2A4
100
AcDbEntity
  8
0
370
              15
  6
Continuous
 62
               7
100
AcDbLine
 10
476.99999750000006
 20
168.99999800000001
 30
0.0
 11
506.99999750000006
 21
168.99999800000001
 31
0.0
  0
LINE
  5
2A5
100
AcDbEntity
  8
0
370
              15
  6
Continuous
 62
               7
100
AcDbLine
 10
476.99999750000006
 20
174.99999800000001
 30
0.0
 11
506.99999750000006
 21
174.99999800000001
 31
0.0
  0
LINE
  5
2A6
100
AcDbEntity
  8
0
370
              15
  6
Continuous
 62
               7
100
AcDbLine
 10
476.99999750000006
 20
180.99999800000001
 30
0.0
 11
506.99999750000006
 21
180.99999800000001
 31
0.0
  0
LINE
  5
2A7
100
AcDbEntity
  8
0
370
              15
  6
Continuous
 62
               7
100
AcDbLine
 10
476.99999750000006
 20
186.99999800000001
 30
0.0
 11
506.99999750000006
 21
186.99999800000001
 31
0.0
  0
LINE
  5
2A8
100
AcDbEntity
  8
0
370
              15
  6
Continuous
 62
               7
100
AcDbLine
 10
476.99999750000006
 20
192.99999800000001
 30
0.0
 11
506.99999750000006
 21
192.99999800000001
 31
0.0
  0
LINE
  5
2A9
100
AcDbEntity
  8
0
370
              15
  6
Continuous
 62
               7
100
AcDbLine
 10
476.99999750000006
 20
198.99999800000001
 30
0.0
 11
506.99999750000006
 21
198.99999800000001
 31
0.0
  0
LINE
  5
2AA
100
AcDbEntity
  8
0
370
              15
  6
Continuous
 62
               7
100
AcDbLine
 10
476.99999750000006
 20
204.99999800000001
 30
0.0
 11
506.99999750000006
 21
204.99999800000001
 31
0.0
  0
LINE
  5
2AB
100
AcDbEntity
  8
0
370
              15
  6
Continuous
 62
               7
100
AcDbLine
 10
476.99999750000006
 20
210.99999800000001
 30
0.0
 11
506.99999750000006
 21
210.99999800000001
 31
0.0
  0
LINE
  5
2AC
100
AcDbEntity
  8
0
370
              15
  6
Continuous
 62
               7
100
AcDbLine
 10
476.99999750000006
 20
216.99999800000001
 30
0.0
 11
506.99999750000006
 21
216.99999800000001
 31
0.0
  0
LINE
  5
2AD
100
AcDbEntity
  8
0
370
              15
  6
Continuous
 62
               7
100
AcDbLine
 10
476.99999750000006
 20
222.99999800000001
 30
0.0
 11
506.99999750000006
 21
222.99999800000001
 31
0.0
  0
LINE
  5
2AE
100
AcDbEntity
  8
0
370
              15
  6
Continuous
 62
               7
100
AcDbLine
 10
476.99999750000006
 20
228.99999800000001
 30
0.0
 11
506.99999750000006
 21
228.99999800000001
 31
0.0
  0
LINE
  5
2AF
100
AcDbEntity
  8
0
370
              15
  6
Continuous
 62
               7
100
AcDbLine
 10
476.99999750000006
 20
234.99999800000001
 30
0.0
 11
506.99999750000006
 21
234.99999800000001
 31
0.0
  0
LINE
  5
2B0
100
AcDbEntity
  8
0
370
              15
  6
Continuous
 62
               7
100
AcDbLine
 10
476.99999750000006
 20
240.99999800000001
 30
0.0
 11
506.99999750000006
 21
240.99999800000001
 31
0.0
  0
LINE
  5
2B1
100
AcDbEntity
  8
0
370
              15
  6
Continuous
 62
               7
100
AcDbLine
 10
476.99999750000006
 20
255.99999800000001
 30
0.0
 11
506.99999750000006
 21
255.99999800000001
 31
0.0
  0
LINE
  5
2B2
100
AcDbEntity
  8
0
370
              15
  6
Continuous
 62
               7
100
AcDbLine
 10
476.99999750000006
 20
274.99999800000001
 30
0.0
 11
506.99999750000006
 21
274.99999800000001
 31
0.0
  0
LINE
  5
2B3
100
AcDbEntity
  8
0
370
              15
  6
Continuous
 62
               7
100
AcDbLine
 10
476.99999750000006
 20
280.99999800000001
 30
0.0
 11
506.99999750000006
 21
280.99999800000001
 31
0.0
  0
LINE
  5
2B4
100
AcDbEntity
  8
0
370
              15
  6
Continuous
 62
               7
100
AcDbLine
 10
476.99999750000006
 20
286.99999800000001
 30
0.0
 11
506.99999750000006
 21
286.99999800000001
 31
0.0
  0
LINE
  5
2B5
100
AcDbEntity
  8
0
370
              15
  6
Continuous
 62
               7
100
AcDbLine
 10
476.99999750000006
 20
292.99999800000001
 30
0.0
 11
506.99999750000006
 21
292.99999800000001
 31
0.0
  0
LINE
  5
2B6
100
AcDbEntity
  8
0
370
              15
  6
Continuous
 62
               7
100
AcDbLine
 10
476.99999750000006
 20
298.99999800000001
 30
0.0
 11
506.99999750000006
 21
298.99999800000001
 31
0.0
  0
LINE
  5
2B7
100
AcDbEntity
  8
0
370
              15
  6
Continuous
 62
               7
100
AcDbLine
 10
476.99999750000006
 20
304.99999800000001
 30
0.0
 11
506.99999750000006
 21
304.99999800000001
 31
0.0
  0
LINE
  5
2B8
100
AcDbEntity
  8
0
370
              15
  6
Continuous
 62
               7
100
AcDbLine
 10
476.99999750000006
 20
310.99999800000001
 30
0.0
 11
506.99999750000006
 21
310.99999800000001
 31
0.0
  0
MTEXT
  5
2B9
100
AcDbEntity
  8
3
 62
               7
100
AcDbMText
 10
522.04668749999996
 20
86.025547999999986
 30
0.0
 40
4.0888879999999999
 41
0.0
 71
               1
 72
               1
  1
7
  7
Arial
 73
               1
 44
1.0
  0
MTEXT
  5
2BA
100
AcDbEntity
  8
3
 62
               7
100
AcDbMText
 10
522.04668749999996
 20
92.225977999999998
 30
0.0
 40
4.0888879999999999
 41
0.0
 71
               1
 72
               1
  1
8
  7
Arial
 73
               1
 44
1.0
  0
MTEXT
  5
2BB
100
AcDbEntity
  8
3
 62
               7
100
AcDbMText
 10
521.77288749999991
 20
98.144557999999989
 30
0.0
 40
4.0888879999999999
 41
0.0
 71
               1
 72
               1
  1
9
  7
Arial
 73
               1
 44
1.0
  0
MTEXT
  5
2BC
100
AcDbEntity
  8
3
 62
               7
100
AcDbMText
 10
518.04668749999996
 20
104.06312799999999
 30
0.0
 40
4.0888879999999999
 41
0.0
 71
               1
 72
               1
  1
1
  7
Arial
 73
               1
 44
1.0
  0
MTEXT
  5
2BD
100
AcDbEntity
  8
3
 62
               7
100
AcDbMText
 10
522.04668749999996
 20
104.06312799999999
 30
0.0
 40
4.0888879999999999
 41
0.0
 71
               1
 72
               1
  1
0
  7
Arial
 73
               1
 44
1.0
  0
MTEXT
  5
2BE
100
AcDbEntity
  8
3
 62
               7
100
AcDbMText
 10
519.30810750000001
 20
116.18212799999999
 30
0.0
 40
4.0888879999999999
 41
0.0
 71
               1
 72
               1
  1
1
  7
Arial
 73
               1
 44
1.0
  0
MTEXT
  5
2BF
100
AcDbEntity
  8
3
 62
               7
100
AcDbMText
 10
523.30810749999989
 20
116.18212799999999
 30
0.0
 40
4.0888879999999999
 41
0.0
 71
               1
 72
               1
  1
1
  7
Arial
 73
               1
 44
1.0
  0
MTEXT
  5
2C0
100
AcDbEntity
  8
3
 62
               7
100
AcDbMText
 10
519.03417749999994
 20
122.100718
 30
0.0
 40
4.0888879999999999
 41
0.0
 71
               1
 72
               1
  1
1
  7
Arial
 73
               1
 44
1.0
  0
MTEXT
  5
2C1
100
AcDbEntity
  8
3
 62
               7
100
AcDbMText
 10
523.03417750000006
 20
122.100718
 30
0.0
 40
4.0888879999999999
 41
0.0
 71
               1
 72
               1
  1
2
  7
Arial
 73
               1
 44
1.0
  0
MTEXT
  5
2C2
100
AcDbEntity
  8
3
 62
               7
100
AcDbMText
 10
519.03417749999994
 20
128.01928799999999
 30
0.0
 40
4.0888879999999999
 41
0.0
 71
               1
 72
               1
  1
1
  7
Arial
 73
               1
 44
1.0
  0
MTEXT
  5
2C3
100
AcDbEntity
  8
3
 62
               7
100
AcDbMText
 10
523.03417750000006
 20
128.01928799999999
 30
0.0
 40
4.0888879999999999
 41
0.0
 71
               1
 72
               1
  1
3
  7
Arial
 73
               1
 44
1.0
  0
MTEXT
  5
2C4
100
AcDbEntity
  8
3
 62
               7
100
AcDbMText
 10
518.76037749999989
 20
134.219708
 30
0.0
 40
4.0888879999999999
 41
0.0
 71
               1
 72
               1
  1
1
  7
Arial
 73
               1
 44
1.0
  0
MTEXT
  5
2C5
100
AcDbEntity
  8
3
 62
               7
100
AcDbMText
 10
522.7603775
 20
134.219708
 30
0.0
 40
4.0888879999999999
 41
0.0
 71
               1
 72
               1
  1
4
  7
Arial
 73
               1
 44
1.0
  0
MTEXT
  5
2C6
100
AcDbEntity
  8
3
 62
               7
100
AcDbMText
 10
518.76037749999989
 20
140.13828799999999
 30
0.0
 40
4.0888879999999999
 41
0.0
 71
               1
 72
               1
  1
1
  7
Arial
 73
               1
 44
1.0
  0
MTEXT
  5
2C7
100
AcDbEntity
  8
3
 62
               7
100
AcDbMText
 10
522.7603775
 20
140.13828799999999
 30
0.0
 40
4.0888879999999999
 41
0.0
 71
               1
 72
               1
  1
5
  7
Arial
 73
               1
 44
1.0
  0
MTEXT
  5
2C8
100
AcDbEntity
  8
3
 62
               7
100
AcDbMText
 10
518.48644750000005
 20
146.05686800000001
 30
0.0
 40
4.0888879999999999
 41
0.0
 71
               1
 72
               1
  1
1
  7
Arial
 73
               1
 44
1.0
  0
MTEXT
  5
2C9
100
AcDbEntity
  8
3
 62
               7
100
AcDbMText
 10
522.48644749999994
 20
146.05686800000001
 30
0.0
 40
4.0888879999999999
 41
0.0
 71
               1
 72
               1
  1
6
  7
Arial
 73
               1
 44
1.0
  0
MTEXT
  5
2CA
100
AcDbEntity
  8
3
 62
               7
100
AcDbMText
 10
518.76037749999989
 20
152.25729799999999
 30
0.0
 40
4.0888879999999999
 41
0.0
 71
               1
 72
               1
  1
1
  7
Arial
 73
               1
 44
1.0
  0
MTEXT
  5
2CB
100
AcDbEntity
  8
3
 62
               7
100
AcDbMText
 10
522.7603775
 20
152.25729799999999
 30
0.0
 40
4.0888879999999999
 41
0.0
 71
               1
 72
               1
  1
7
  7
Arial
 73
               1
 44
1.0
  0
MTEXT
  5
2CC
100
AcDbEntity
  8
3
 62
               7
100
AcDbMText
 10
518.48644750000005
 20
158.17587800000001
 30
0.0
 40
4.0888879999999999
 41
0.0
 71
               1
 72
               1
  1
1
  7
Arial
 73
               1
 44
1.0
  0
MTEXT
  5
2CD
100
AcDbEntity
  8
3
 62
               7
100
AcDbMText
 10
522.48644749999994
 20
158.17587800000001
 30
0.0
 40
4.0888879999999999
 41
0.0
 71
               1
 72
               1
  1
8
  7
Arial
 73
               1
 44
1.0
  0
MTEXT
  5
2CE
100
AcDbEntity
  8
3
 62
               7
100
AcDbMText
 10
518.76037749999989
 20
164.094448
 30
0.0
 40
4.0888879999999999
 41
0.0
 71
               1
 72
               1
  1
1
  7
Arial
 73
               1
 44
1.0
  0
MTEXT
  5
2CF
100
AcDbEntity
  8
3
 62
               7
100
AcDbMText
 10
522.7603775
 20
164.094448
 30
0.0
 40
4.0888879999999999
 41
0.0
 71
               1
 72
               1
  1
9
  7
Arial
 73
               1
 44
1.0
  0
MTEXT
  5
2D0
100
AcDbEntity
  8
3
 62
               7
100
AcDbMText
 10
519.03417749999994
 20
170.01302799999999
 30
0.0
 40
4.0888879999999999
 41
0.0
 71
               1
 72
               1
  1
2
  7
Arial
 73
               1
 44
1.0
  0
MTEXT
  5
2D1
100
AcDbEntity
  8
3
 62
               7
100
AcDbMText
 10
523.03417750000006
 20
170.01302799999999
 30
0.0
 40
4.0888879999999999
 41
0.0
 71
               1
 72
               1
  1
0
  7
Arial
 73
               1
 44
1.0
  0
MTEXT
  5
2D2
100
AcDbEntity
  8
3
 62
               7
100
AcDbMText
 10
518.76037749999989
 20
176.213458
 30
0.0
 40
4.0888879999999999
 41
0.0
 71
               1
 72
               1
  1
2
  7
Arial
 73
               1
 44
1.0
  0
MTEXT
  5
2D3
100
AcDbEntity
  8
3
 62
               7
100
AcDbMText
 10
522.7603775
 20
176.213458
 30
0.0
 40
4.0888879999999999
 41
0.0
 71
               1
 72
               1
  1
1
  7
Arial
 73
               1
 44
1.0
  0
MTEXT
  5
2D4
100
AcDbEntity
  8
3
 62
               7
100
AcDbMText
 10
518.48650750000002
 20
182.13203799999999
 30
0.0
 40
4.0888879999999999
 41
0.0
 71
               1
 72
               1
  1
2
  7
Arial
 73
               1
 44
1.0
  0
MTEXT
  5
2D5
100
AcDbEntity
  8
3
 62
               7
100
AcDbMText
 10
522.48650750000002
 20
182.13203799999999
 30
0.0
 40
4.0888879999999999
 41
0.0
 71
               1
 72
               1
  1
2
  7
Arial
 73
               1
 44
1.0
  0
MTEXT
  5
2D6
100
AcDbEntity
  8
3
 62
               7
100
AcDbMText
 10
519.03423750000002
 20
188.05061799999999
 30
0.0
 40
4.0888879999999999
 41
0.0
 71
               1
 72
               1
  1
2
  7
Arial
 73
               1
 44
1.0
  0
MTEXT
  5
2D7
100
AcDbEntity
  8
3
 62
               7
100
AcDbMText
 10
523.03423750000002
 20
188.05061799999999
 30
0.0
 40
4.0888879999999999
 41
0.0
 71
               1
 72
               1
  1
3
  7
Arial
 73
               1
 44
1.0
  0
MTEXT
  5
2D8
100
AcDbEntity
  8
3
 62
               7
100
AcDbMText
 10
518.48650750000002
 20
194.25103799999999
 30
0.0
 40
4.0888879999999999
 41
0.0
 71
               1
 72
               1
  1
2
  7
Arial
 73
               1
 44
1.0
  0
MTEXT
  5
2D9
100
AcDbEntity
  8
3
 62
               7
100
AcDbMText
 10
522.48650750000002
 20
194.25103799999999
 30
0.0
 40
4.0888879999999999
 41
0.0
 71
               1
 72
               1
  1
4
  7
Arial
 73
               1
 44
1.0
  0
MTEXT
  5
2DA
100
AcDbEntity
  8
3
 62
               7
100
AcDbMText
 10
518.76031749999993
 20
200.16961800000001
 30
0.0
 40
4.0888879999999999
 41
0.0
 71
               1
 72
               1
  1
2
  7
Arial
 73
               1
 44
1.0
  0
MTEXT
  5
2DB
100
AcDbEntity
  8
3
 62
               7
100
AcDbMText
 10
522.76031750000004
 20
200.16961800000001
 30
0.0
 40
4.0888879999999999
 41
0.0
 71
               1
 72
               1
  1
5
  7
Arial
 73
               1
 44
1.0
  0
MTEXT
  5
2DC
100
AcDbEntity
  8
3
 62
               7
100
AcDbMText
 10
518.21258750000004
 20
206.08819800000001
 30
0.0
 40
4.0888879999999999
 41
0.0
 71
               1
 72
               1
  1
2
  7
Arial
 73
               1
 44
1.0
  0
MTEXT
  5
2DD
100
AcDbEntity
  8
3
 62
               7
100
AcDbMText
 10
522.21258750000004
 20
206.08819800000001
 30
0.0
 40
4.0888879999999999
 41
0.0
 71
               1
 72
               1
  1
6
  7
Arial
 73
               1
 44
1.0
  0
MTEXT
  5
2DE
100
AcDbEntity
  8
3
 62
               7
100
AcDbMText
 10
518.48650750000002
 20
212.006778
 30
0.0
 40
4.0888879999999999
 41
0.0
 71
               1
 72
               1
  1
2
  7
Arial
 73
               1
 44
1.0
  0
MTEXT
  5
2DF
100
AcDbEntity
  8
3
 62
               7
100
AcDbMText
 10
522.48650750000002
 20
212.006778
 30
0.0
 40
4.0888879999999999
 41
0.0
 71
               1
 72
               1
  1
7
  7
Arial
 73
               1
 44
1.0
  0
MTEXT
  5
2E0
100
AcDbEntity
  8
3
 62
               7
100
AcDbMText
 10
518.74535749999995
 20
217.99635799999999
 30
0.0
 40
4.0888879999999999
 41
0.0
 71
               1
 72
               1
  1
2
  7
Arial
 73
               1
 44
1.0
  0
MTEXT
  5
2E1
100
AcDbEntity
  8
3
 62
               7
100
AcDbMText
 10
522.74535749999995
 20
217.99635799999999
 30
0.0
 40
4.0888879999999999
 41
0.0
 71
               1
 72
               1
  1
8
  7
Arial
 73
               1
 44
1.0
  0
MTEXT
  5
2E2
100
AcDbEntity
  8
3
 62
               7
100
AcDbMText
 10
518.47143749999998
 20
224.19675799999999
 30
0.0
 40
4.0888879999999999
 41
0.0
 71
               1
 72
               1
  1
2
  7
Arial
 73
               1
 44
1.0
  0
MTEXT
  5
2E3
100
AcDbEntity
  8
3
 62
               7
100
AcDbMText
 10
522.47143749999998
 20
224.19675799999999
 30
0.0
 40
4.0888879999999999
 41
0.0
 71
               1
 72
               1
  1
9
  7
Arial
 73
               1
 44
1.0
  0
MTEXT
  5
2E4
100
AcDbEntity
  8
3
 62
               7
100
AcDbMText
 10
519.01916749999998
 20
230.11533800000001
 30
0.0
 40
4.0888879999999999
 41
0.0
 71
               1
 72
               1
  1
3
  7
Arial
 73
               1
 44
1.0
  0
MTEXT
  5
2E5
100
AcDbEntity
  8
3
 62
               7
100
AcDbMText
 10
523.01916749999998
 20
230.11533800000001
 30
0.0
 40
4.0888879999999999
 41
0.0
 71
               1
 72
               1
  1
0
  7
Arial
 73
               1
 44
1.0
  0
MTEXT
  5
2E6
100
AcDbEntity
  8
3
 62
               7
100
AcDbMText
 10
519.01916749999998
 20
236.033918
 30
0.0
 40
4.0888879999999999
 41
0.0
 71
               1
 72
               1
  1
3
  7
Arial
 73
               1
 44
1.0
  0
MTEXT
  5
2E7
100
AcDbEntity
  8
3
 62
               7
100
AcDbMText
 10
523.01916749999998
 20
236.033918
 30
0.0
 40
4.0888879999999999
 41
0.0
 71
               1
 72
               1
  1
1
  7
Arial
 73
               1
 44
1.0
  0
MTEXT
  5
2E8
100
AcDbEntity
  8
3
 62
               7
100
AcDbMText
 10
518.74535749999995
 20
242.23434800000001
 30
0.0
 40
4.0888879999999999
 41
0.0
 71
               1
 72
               1
  1
3
  7
Arial
 73
               1
 44
1.0
  0
MTEXT
  5
2E9
100
AcDbEntity
  8
3
 62
               7
100
AcDbMText
 10
522.74535749999995
 20
242.23434800000001
 30
0.0
 40
4.0888879999999999
 41
0.0
 71
               1
 72
               1
  1
2
  7
Arial
 73
               1
 44
1.0
  0
MTEXT
  5
2EA
100
AcDbEntity
  8
3
 62
               7
100
AcDbMText
 10
521.21008749999999
 20
257.171718
 30
0.0
 40
4.0888879999999999
 41
0.0
 71
               1
 72
               1
  1
C
  7
Arial
 73
               1
 44
1.0
  0
MTEXT
  5
2EB
100
AcDbEntity
  8
3
 62
               7
100
AcDbMText
 10
518.06072749999998
 20
276.19570799999997
 30
0.0
 40
4.0888879999999999
 41
0.0
 71
               1
 72
               1
  1
3
  7
Arial
 73
               1
 44
1.0
  0
MTEXT
  5
2EC
100
AcDbEntity
  8
3
 62
               7
100
AcDbMText
 10
522.06072749999998
 20
276.19570799999997
 30
0.0
 40
4.0888879999999999
 41
0.0
 71
               1
 72
               1
  1
3
  7
Arial
 73
               1
 44
1.0
  0
MTEXT
  5
2ED
100
AcDbEntity
  8
3
 62
               7
100
AcDbMText
 10
518.3345374999999
 20
282.11431800000003
 30
0.0
 40
4.0888879999999999
 41
0.0
 71
               1
 72
               1
  1
3
  7
Arial
 73
               1
 44
1.0
  0
MTEXT
  5
2EE
100
AcDbEntity
  8
3
 62
               7
100
AcDbMText
 10
522.33453750000001
 20
282.11431800000003
 30
0.0
 40
4.0888879999999999
 41
0.0
 71
               1
 72
               1
  1
4
  7
Arial
 73
               1
 44
1.0
  0
MTEXT
  5
2EF
100
AcDbEntity
  8
3
 62
               7
100
AcDbMText
 10
518.06072749999998
 20
288.03289799999999
 30
0.0
 40
4.0888879999999999
 41
0.0
 71
               1
 72
               1
  1
3
  7
Arial
 73
               1
 44
1.0
  0
MTEXT
  5
2F0
100
AcDbEntity
  8
3
 62
               7
100
AcDbMText
 10
522.06072749999998
 20
288.03289799999999
 30
0.0
 40
4.0888879999999999
 41
0.0
 71
               1
 72
               1
  1
5
  7
Arial
 73
               1
 44
1.0
  0
MTEXT
  5
2F1
100
AcDbEntity
  8
3
 62
               7
100
AcDbMText
 10
518.3345374999999
 20
294.23330799999997
 30
0.0
 40
4.0888879999999999
 41
0.0
 71
               1
 72
               1
  1
3
  7
Arial
 73
               1
 44
1.0
  0
MTEXT
  5
2F2
100
AcDbEntity
  8
3
 62
               7
100
AcDbMText
 10
522.33453750000001
 20
294.23330799999997
 30
0.0
 40
4.0888879999999999
 41
0.0
 71
               1
 72
               1
  1
6
  7
Arial
 73
               1
 44
1.0
  0
MTEXT
  5
2F3
100
AcDbEntity
  8
3
 62
               7
100
AcDbMText
 10
518.3345374999999
 20
300.15188799999999
 30
0.0
 40
4.0888879999999999
 41
0.0
 71
               1
 72
               1
  1
3
  7
Arial
 73
               1
 44
1.0
  0
MTEXT
  5
2F4
100
AcDbEntity
  8
3
 62
               7
100
AcDbMText
 10
522.33453750000001
 20
300.15188799999999
 30
0.0
 40
4.0888879999999999
 41
0.0
 71
               1
 72
               1
  1
7
  7
Arial
 73
               1
 44
1.0
  0
MTEXT
  5
2F5
100
AcDbEntity
  8
3
 62
               7
100
AcDbMText
 10
518.60845749999999
 20
306.07046800000001
 30
0.0
 40
4.0888879999999999
 41
0.0
 71
               1
 72
               1
  1
3
  7
Arial
 73
               1
 44
1.0
  0
MTEXT
  5
2F6
100
AcDbEntity
  8
3
 62
               7
100
AcDbMText
 10
522.60845749999999
 20
306.07046800000001
 30
0.0
 40
4.0888879999999999
 41
0.0
 71
               1
 72
               1
  1
8
  7
Arial
 73
               1
 44
1.0
  0
MTEXT
  5
2F7
100
AcDbEntity
  8
3
 62
               7
100
AcDbMText
 10
518.3345374999999
 20
311.98904800000003
 30
0.0
 40
4.0888879999999999
 41
0.0
 71
               1
 72
               1
  1
3
  7
Arial
 73
               1
 44
1.0
  0
MTEXT
  5
2F8
100
AcDbEntity
  8
3
 62
               7
100
AcDbMText
 10
522.33453750000001
 20
311.98904800000003
 30
0.0
 40
4.0888879999999999
 41
0.0
 71
               1
 72
               1
  1
9
  7
Arial
 73
               1
 44
1.0
  0
LINE
  5
2F9
100
AcDbEntity
  8
0
370
              30
  6
Continuous
 62
               7
100
AcDbLine
 10
538.69683750000002
 20
0.0362779999999816
 30
0.0
 11
526.69683750000002
 21
0.0362779999999816
 31
0.0
  0
LINE
  5
2FA
100
AcDbEntity
  8
0
370
              15
  6
STYLE_07
 62
               7
100
AcDbLine
 10
0.0048274999999948
 20
-161.09640200000001
 30
0.0
 11
0.0048274999999948
 21
-23.998782000000006
 31
0.0
  0
LINE
  5
2FB
100
AcDbEntity
  8
0
370
              15
  6
STYLE_06
 62
               7
100
AcDbLine
 10
0.0048274999999948
 20
437.796018
 30
0.0
 11
0.0048274999999948
 21
-23.998782000000006
 31
0.0
  0
MTEXT
  5
2FC
100
AcDbEntity
  8
0
 62
               7
100
AcDbMText
 10
48.526597097490374
 20
-257.98045913873887
 30
0.0
 40
17.475925619562421
 41
0.0
 71
               1
 72
               1
  1
Main Statge        Ground Plan\PScale 1/8"=1'0" 
  7
Lydian
 73
               1
 44
1.0
  0
LINE
  5
2FD
100
AcDbEntity
  8
Dimension
370
               5
  6
Continuous
 62
               7
100
AcDbLine
 10
-148.0
 20
0.0012179999999944
 30
0.0
 11
-174.78460103057483
 21
0.0012179999999944
 31
0.0
  0
LINE
  5
2FE
100
AcDbEntity
  8
Dimension
370
               5
  6
Continuous
 62
               7
100
AcDbLine
 10
-148.0
 20
-23.998772000000031
 30
0.0
 11
-174.78460103057483
 21
-23.998772000000031
 31
0.0
  0
LINE
  5
2FF
100
AcDbEntity
  8
Dimension
370
               5
  6
Continuous
 62
               7
100
AcDbLine
 10
-162.78460103057481
 20
6.0012179999999944
 30
0.0
 11
-162.78460103057481
 21
0.0012179999999944
 31
0.0
  0
LINE
  5
300
100
AcDbEntity
  8
Dimension
370
               5
  6
Continuous
 62
               7
100
AcDbLine
 10
-162.78460103057481
 20
-23.998772000000031
 30
0.0
 11
-162.78460103057481
 21
-29.998772000000002
 31
0.0
  0
LINE
  5
302
100
AcDbEntity
  8
Dimension
370
              20
 62
               7
100
AcDbLine
 10
-158.54196034345554
 20
-4.2414226871192966
 30
0.0
 11
-167.02724171769412
 21
4.2438586871192854
 31
0.0
  0
LINE
  5
303
100
AcDbEntity
  8
Dimension
370
              20
 62
               7
100
AcDbLine
 10
-167.02724171769412
 20
-19.75613131288074
 30
0.0
 11
-158.54196034345554
 21
-28.241412687119322
 31
0.0
  0
LINE
  5
301
100
AcDbEntity
  8
Dimension
370
               5
  6
Continuous
 62
               7
100
AcDbLine
 10
-162.78460103057481
 20
0.0012179999999944
 30
0.0
 11
-162.78460103057481
 21
-23.998772000000031
 31
0.0
  0
INSERT
  5
304
100
AcDbEntity
  8
Dimension
 62
               7
100
AcDbBlockReference
  2
*U0
 10
-0.8978825000000053
 20
138.349808
 30
0.0
  0
ENDSEC
  0
SECTION
  2
OBJECTS
  0
DICTIONARY
  5
19
100
AcDbDictionary
280
               0
281
               1
  3
ACAD_GROUP
350
1A
  3
ACAD_MLINESTYLE
350
1B
  3
ACAD_LAYOUT
350
1E
  3
ACAD_PLOTSETTINGS
350
22
  3
ACAD_PLOTSTYLENAME
350
1F
  0
DICTIONARY
  5
1A
102
{ACAD_REACTORS
330
19
102
}
100
AcDbDictionary
280
               0
281
               1
  0
DICTIONARY
  5
1B
102
{ACAD_REACTORS
330
19
102
}
100
AcDbDictionary
280
               0
281
               1
  3
Standard
350
1C
  0
MLINESTYLE
  5
1C
102
{ACAD_REACTORS
330
1B
102
}
100
AcDbMlineStyle
  2
Standard
 70
               0
  3

 62
               0
 51
90.0
 52
90.0
 71
               2
 49
0.5
 62
             256
  6
BYLAYER
 49
-0.5
 62
             256
  6
BYLAYER
  0
ACDBDICTIONARYWDFLT
  5
1F
102
{ACAD_REACTORS
330
19
102
}
100
AcDbDictionary
281
               1
  3
Normal
350
1D
100
AcDbDictionaryWithDefault
340
1D
  0
ACDBPLACEHOLDER
  5
1D
102
{ACAD_REACTORS
330
1F
102
}
  0
LAYOUT
  5
20
102
{ACAD_REACTORS
330
1E
102
}
100
AcDbPlotSettings
  1

  2

  4

  6

 40
0.0
 41
0.0
 42
0.0
 43
0.0
 44
0.0
 45
0.0
 46
0.0
 47
0.0
 48
0.0
 49
0.0
140
0.0
141
0.0
142
1.0
143
1.0
 70
            1024
 72
               0
 73
               0
 74
               0
  7

 75
               0
147
1.0
148
0.0
149
0.0
100
AcDbLayout
  1
Model
 70
               0
 71
               0
 10
0.0
 20
0.0
 11
0.0
 21
0.0
 12
0.0
 22
0.0
 32
0.0
 14
0.0
 24
0.0
 34
0.0
 15
0.0
 25
0.0
 35
0.0
146
0.0
 13
0.0
 23
0.0
 33
0.0
 16
0.0
 26
0.0
 36
0.0
 17
0.0
 27
0.0
 37
0.0
 76
               0
330
A
331
0
345
0
346
0
  0
LAYOUT
  5
21
102
{ACAD_REACTORS
330
1E
102
}
100
AcDbPlotSettings
  1

  2

  4

  6

 40
0.0
 41
0.0
 42
0.0
 43
0.0
 44
0.0
 45
0.0
 46
0.0
 47
0.0
 48
0.0
 49
0.0
140
0.0
141
0.0
142
1.0
143
1.0
 70
               0
 72
               0
 73
               0
 74
               0
  7

 75
               0
147
1.0
148
0.0
149
0.0
100
AcDbLayout
  1
Layout1
 70
               0
 71
               0
 10
0.0
 20
0.0
 11
0.0
 21
0.0
 12
0.0
 22
0.0
 32
0.0
 14
0.0
 24
0.0
 34
0.0
 15
0.0
 25
0.0
 35
0.0
146
0.0
 13
0.0
 23
0.0
 33
0.0
 16
0.0
 26
0.0
 36
0.0
 17
0.0
 27
0.0
 37
0.0
 76
               0
330
B
331
0
345
0
346
0
  0
DICTIONARY
  5
1E
102
{ACAD_REACTORS
330
19
102
}
100
AcDbDictionary
280
               0
281
               1
  3
Layout1
350
21
  3
Model
350
20
  0
DICTIONARY
  5
22
102
{ACAD_REACTORS
330
19
102
}
100
AcDbDictionary
280
               0
281
               1
  0
ENDSEC
  0
EOF
